  0
SECTION
  2
HEADER
  9
$ACADVER
  1
AC1015
  9
$ACADMAINTVER
 70
     6
  9
$DWGCODEPAGE
  3
ANSI_1254
  9
$INSBASE
 10
0.0
 20
0.0
 30
0.0
  9
$EXTMIN
 10
0.0
 20
0.0
 30
0.0
  9
$EXTMAX
 10
279.4
 20
215.9
 30
0.0
  9
$LIMMIN
 10
0.0
 20
0.0
  9
$LIMMAX
 10
279.4
 20
215.9
  9
$ORTHOMODE
 70
     0
  9
$REGENMODE
 70
     1
  9
$FILLMODE
 70
     1
  9
$QTEXTMODE
 70
     0
  9
$MIRRTEXT
 70
     1
  9
$LTSCALE
 40
1.0
  9
$ATTMODE
 70
     1
  9
$TEXTSIZE
 40
3.5
  9
$TRACEWID
 40
1.0
  9
$TEXTSTYLE
  7
Standard
  9
$CLAYER
  8
0
  9
$CELTYPE
  6
ByLayer
  9
$CECOLOR
 62
   256
  9
$CELTSCALE
 40
1.0
  9
$DISPSILH
 70
     0
  9
$DIMSCALE
 40
1.0
  9
$DIMASZ
 40
3.5
  9
$DIMEXO
 40
1.0
  9
$DIMDLI
 40
3.75
  9
$DIMRND
 40
0.0
  9
$DIMDLE
 40
0.0
  9
$DIMEXE
 40
1.0
  9
$DIMTP
 40
0.0
  9
$DIMTM
 40
0.0
  9
$DIMTXT
 40
3.5
  9
$DIMCEN
 40
2.5
  9
$DIMTSZ
 40
0.0
  9
$DIMTOL
 70
     0
  9
$DIMLIM
 70
     0
  9
$DIMTIH
 70
     1
  9
$DIMTOH
 70
     1
  9
$DIMSE1
 70
     0
  9
$DIMSE2
 70
     0
  9
$DIMTAD
 70
     1
  9
$DIMZIN
 70
     0
  9
$DIMBLK
  1

  9
$DIMASO
 70
     1
  9
$DIMSHO
 70
     1
  9
$DIMPOST
  1

  9
$DIMAPOST
  1

  9
$DIMALT
 70
     0
  9
$DIMALTD
 70
     3
  9
$DIMALTF
 40
0.0393700787
  9
$DIMLFAC
 40
1.0
  9
$DIMTOFL
 70
     1
  9
$DIMTVP
 40
0.0
  9
$DIMTIX
 70
     0
  9
$DIMSOXD
 70
     0
  9
$DIMSAH
 70
     0
  9
$DIMBLK1
  1

  9
$DIMBLK2
  1

  9
$DIMSTYLE
  2
ISO-25
  9
$DIMCLRD
 70
     0
  9
$DIMCLRE
 70
     0
  9
$DIMCLRT
 70
     0
  9
$DIMTFAC
 40
1.0
  9
$DIMGAP
 40
1.524
  9
$DIMJUST
 70
     0
  9
$DIMSD1
 70
     0
  9
$DIMSD2
 70
     0
  9
$DIMTOLJ
 70
     0
  9
$DIMTZIN
 70
     0
  9
$DIMALTZ
 70
     0
  9
$DIMALTTZ
 70
     0
  9
$DIMUPT
 70
     0
  9
$DIMDEC
 70
     2
  9
$DIMTDEC
 70
     2
  9
$DIMALTU
 70
     2
  9
$DIMALTTD
 70
     3
  9
$DIMTXSTY
  7
Standard
  9
$DIMAUNIT
 70
     0
  9
$DIMADEC
 70
     2
  9
$DIMALTRND
 40
0.0
  9
$DIMAZIN
 70
     0
  9
$DIMDSEP
 70
    44
  9
$DIMATFIT
 70
     3
  9
$DIMFRAC
 70
     0
  9
$DIMLDRBLK
  1

  9
$DIMLUNIT
 70
     2
  9
$DIMLWD
 70
    -2
  9
$DIMLWE
 70
    -2
  9
$DIMTMOVE
 70
     0
  9
$LUNITS
 70
     2
  9
$LUPREC
 70
     2
  9
$SKETCHINC
 40
1.0
  9
$FILLETRAD
 40
10.0
  9
$AUNITS
 70
     0
  9
$AUPREC
 70
     2
  9
$MENU
  1
.
  9
$ELEVATION
 40
0.0
  9
$PELEVATION
 40
0.0
  9
$THICKNESS
 40
0.0
  9
$LIMCHECK
 70
     0
  9
$CHAMFERA
 40
0.0
  9
$CHAMFERB
 40
0.0
  9
$CHAMFERC
 40
0.0
  9
$CHAMFERD
 40
0.0
  9
$SKPOLY
 70
     0
  9
$TDCREATE
 40
2460682.519626366
  9
$TDUCREATE
 40
2460682.394626366
  9
$TDUPDATE
 40
2460682.519626551
  9
$TDUUPDATE
 40
2460682.394626551
  9
$TDINDWG
 40
0.0000000116
  9
$TDUSRTIMER
 40
0.0000000116
  9
$USRTIMER
 70
     1
  9
$ANGBASE
 50
0.0
  9
$ANGDIR
 70
     0
  9
$PDMODE
 70
     0
  9
$PDSIZE
 40
-1.0
  9
$PLINEWID
 40
0.0
  9
$SPLFRAME
 70
     0
  9
$SPLINETYPE
 70
     6
  9
$SPLINESEGS
 70
     8
  9
$HANDSEED
  5
BF
  9
$SURFTAB1
 70
     6
  9
$SURFTAB2
 70
     6
  9
$SURFTYPE
 70
     6
  9
$SURFU
 70
     6
  9
$SURFV
 70
     6
  9
$UCSBASE
  2

  9
$UCSNAME
  2

  9
$UCSORG
 10
0.0
 20
0.0
 30
0.0
  9
$UCSXDIR
 10
1.0
 20
0.0
 30
0.0
  9
$UCSYDIR
 10
0.0
 20
1.0
 30
0.0
  9
$UCSORTHOREF
  2

  9
$UCSORTHOVIEW
 70
     0
  9
$UCSORGTOP
 10
0.0
 20
0.0
 30
0.0
  9
$UCSORGBOTTOM
 10
0.0
 20
0.0
 30
0.0
  9
$UCSORGLEFT
 10
0.0
 20
0.0
 30
0.0
  9
$UCSORGRIGHT
 10
0.0
 20
0.0
 30
0.0
  9
$UCSORGFRONT
 10
0.0
 20
0.0
 30
0.0
  9
$UCSORGBACK
 10
0.0
 20
0.0
 30
0.0
  9
$PUCSBASE
  2

  9
$PUCSNAME
  2

  9
$PUCSORG
 10
0.0
 20
0.0
 30
0.0
  9
$PUCSXDIR
 10
1.0
 20
0.0
 30
0.0
  9
$PUCSYDIR
 10
0.0
 20
1.0
 30
0.0
  9
$PUCSORTHOREF
  2

  9
$PUCSORTHOVIEW
 70
     0
  9
$PUCSORGTOP
 10
0.0
 20
0.0
 30
0.0
  9
$PUCSORGBOTTOM
 10
0.0
 20
0.0
 30
0.0
  9
$PUCSORGLEFT
 10
0.0
 20
0.0
 30
0.0
  9
$PUCSORGRIGHT
 10
0.0
 20
0.0
 30
0.0
  9
$PUCSORGFRONT
 10
0.0
 20
0.0
 30
0.0
  9
$PUCSORGBACK
 10
0.0
 20
0.0
 30
0.0
  9
$USERI1
 70
     0
  9
$USERI2
 70
     0
  9
$USERI3
 70
     0
  9
$USERI4
 70
     0
  9
$USERI5
 70
     0
  9
$USERR1
 40
0.0
  9
$USERR2
 40
0.0
  9
$USERR3
 40
0.0
  9
$USERR4
 40
0.0
  9
$USERR5
 40
0.0
  9
$WORLDVIEW
 70
     1
  9
$SHADEDGE
 70
     3
  9
$SHADEDIF
 70
    70
  9
$TILEMODE
 70
     1
  9
$MAXACTVP
 70
    64
  9
$PINSBASE
 10
0.0
 20
0.0
 30
0.0
  9
$PLIMCHECK
 70
     0
  9
$PEXTMIN
 10
1.0000000000E+20
 20
1.0000000000E+20
 30
1.0000000000E+20
  9
$PEXTMAX
 10
-1.0000000000E+20
 20
-1.0000000000E+20
 30
-1.0000000000E+20
  9
$PLIMMIN
 10
0.0
 20
0.0
  9
$PLIMMAX
 10
420.0
 20
297.0
  9
$UNITMODE
 70
     0
  9
$VISRETAIN
 70
     1
  9
$PLINEGEN
 70
     0
  9
$PSLTSCALE
 70
     1
  9
$TREEDEPTH
 70
  3020
  9
$CMLSTYLE
  2
Standard
  9
$CMLJUST
 70
     0
  9
$CMLSCALE
 40
20.0
  9
$PROXYGRAPHICS
 70
     1
  9
$MEASUREMENT
 70
     1
  9
$CELWEIGHT
370
    -1
  9
$ENDCAPS
280
     0
  9
$JOINSTYLE
280
     0
  9
$LWDISPLAY
290
     1
  9
$INSUNITS
 70
     4
  9
$HYPERLINKBASE
  1

  9
$STYLESHEET
  1

  9
$XEDIT
290
     1
  9
$CEPSNTYPE
380
     0
  9
$PSTYLEMODE
290
     1
  9
$FINGERPRINTGUID
  2
{3de242e1-e5f2-4ba0-beca-4dd8ac57b8b7}
  9
$VERSIONGUID
  2
{FAEB1C32-E019-11D5-929B-00C0DF256EC4}
  9
$EXTNAMES
290
     1
  9
$PSVPSCALE
 40
0.0
  9
$OLESTARTUP
290
     0
  0
ENDSEC
  0
SECTION
  2
CLASSES
  0
CLASS
  1
ACDBDICTIONARYWDFLT
  2
AcDbDictionaryWithDefault
  3
ObjectDBX Classes
 90
        0
280
     0
281
     0
  0
CLASS
  1
VISUALSTYLE
  2
AcDbVisualStyle
  3
ObjectDBX Classes
 90
     4095
280
     0
281
     0
  0
CLASS
  1
MATERIAL
  2
AcDbMaterial
  3
ObjectDBX Classes
 90
     1153
280
     0
281
     0
  0
CLASS
  1
SCALE
  2
AcDbScale
  3
ObjectDBX Classes
 90
     1153
280
     0
281
     0
  0
CLASS
  1
TABLESTYLE
  2
AcDbTableStyle
  3
ObjectDBX Classes
 90
     4095
280
     0
281
     0
  0
CLASS
  1
MLEADERSTYLE
  2
AcDbMLeaderStyle
  3
ACDB_MLEADERSTYLE_CLASS
 90
     4095
280
     0
281
     0
  0
CLASS
  1
SUN
  2
AcDbSun
  3
SCENEOE
 90
     1153
280
     0
281
     0
  0
CLASS
  1
ACDBPLACEHOLDER
  2
AcDbPlaceHolder
  3
ObjectDBX Classes
 90
        0
280
     0
281
     0
  0
CLASS
  1
LAYOUT
  2
AcDbLayout
  3
ObjectDBX Classes
 90
        0
280
     0
281
     0
  0
ENDSEC
  0
SECTION
  2
TABLES
  0
TABLE
  2
VPORT
  5
8
330
0
100
AcDbSymbolTable
 70
     1
  0
VPORT
  5
29
330
8
100
AcDbSymbolTableRecord
100
AcDbViewportTableRecord
  2
*Active
 70
     0
 10
0.0
 20
0.0
 11
1.0
 21
1.0
 12
139.7
 22
107.95
 13
0.0
 23
0.0
 14
10.0
 24
10.0
 15
10.0
 25
10.0
 16
0.0
 26
0.0
 36
1.0
 17
0.0
 27
0.0
 37
0.0
 40
215.9
 41
1.2941176471
 42
50.0
 43
0.0
 44
0.0
 50
0.0
 51
0.0
 71
     0
 72
  2000
 73
     1
 74
     3
 75
     0
 76
     0
 77
     0
 78
     0
281
     0
 65
     1
110
0.0
120
0.0
130
0.0
111
1.0
121
0.0
131
0.0
112
0.0
122
1.0
132
0.0
 79
     0
146
0.0
  0
ENDTAB
  0
TABLE
  2
LTYPE
  5
5
330
0
100
AcDbSymbolTable
 70
     6
  0
LTYPE
  5
14
330
5
100
AcDbSymbolTableRecord
100
AcDbLinetypeTableRecord
  2
ByBlock
 70
     0
  3

 72
    65
 73
     0
 40
0.0
  0
LTYPE
  5
15
330
5
100
AcDbSymbolTableRecord
100
AcDbLinetypeTableRecord
  2
ByLayer
 70
     0
  3

 72
    65
 73
     0
 40
0.0
  0
LTYPE
  5
16
330
5
100
AcDbSymbolTableRecord
100
AcDbLinetypeTableRecord
  2
Continuous
 70
     0
  3
Solid line
 72
    65
 73
     0
 40
0.0
  0
LTYPE
  5
6E
330
5
100
AcDbSymbolTableRecord
100
AcDbLinetypeTableRecord
  2
HIDDEN
 70
     0
  3
Hidden __ __ __ __ __ __ __ __ __ __ __ __ __ __
 72
    65
 73
     2
 40
1.905
 49
1.27
 74
     0
 49
-0.635
 74
     0
  0
LTYPE
  5
6F
330
5
100
AcDbSymbolTableRecord
100
AcDbLinetypeTableRecord
  2
PHANTOM
 70
     0
  3
Phantom ______  __  __  ______  __  __  ______
 72
    65
 73
     6
 40
12.7
 49
6.35
 74
     0
 49
-1.27
 74
     0
 49
1.27
 74
     0
 49
-1.27
 74
     0
 49
1.27
 74
     0
 49
-1.27
 74
     0
  0
LTYPE
  5
70
330
5
100
AcDbSymbolTableRecord
100
AcDbLinetypeTableRecord
  2
CENTER
 70
     0
  3
Center ____ _ ____ _ ____ _ ____ _ ____ _ ____
 72
    65
 73
     4
 40
10.16
 49
6.35
 74
     0
 49
-1.27
 74
     0
 49
1.27
 74
     0
 49
-1.27
 74
     0
  0
LTYPE
  5
71
330
5
100
AcDbSymbolTableRecord
100
AcDbLinetypeTableRecord
  2
CENTERX2
 70
     0
  3
Center (2x) ________  __  ________  __  _____
 72
    65
 73
     4
 40
20.32
 49
12.7
 74
     0
 49
-2.54
 74
     0
 49
2.54
 74
     0
 49
-2.54
 74
     0
  0
LTYPE
  5
72
330
5
100
AcDbSymbolTableRecord
100
AcDbLinetypeTableRecord
  2
DOT2
 70
     0
  3
Dot (.5x) ........................................
 72
    65
 73
     2
 40
0.635
 49
0.0
 74
     0
 49
-0.635
 74
     0
  0
ENDTAB
  0
TABLE
  2
LAYER
  5
2
330
0
100
AcDbSymbolTable
 70
    17
  0
LAYER
  5
10
330
2
100
AcDbSymbolTableRecord
100
AcDbLayerTableRecord
  2
0
 70
     0
 62
     7
  6
Continuous
370
    -3
390
F
  0
LAYER
  5
73
330
2
100
AcDbSymbolTableRecord
100
AcDbLayerTableRecord
  2
FORMAT
 70
     0
 62
     7
  6
Continuous
370
    -3
390
F
  0
LAYER
  5
74
330
2
100
AcDbSymbolTableRecord
100
AcDbLayerTableRecord
  2
YARDIMCI_GEOMETRI
 70
     0
 62
    -6
  6
Continuous
290
     0
370
    -3
390
F
  0
LAYER
  5
75
330
2
100
AcDbSymbolTableRecord
100
AcDbLayerTableRecord
  2
SAYFA_CERCEVESI
 70
     0
 62
     7
  6
Continuous
370
    25
390
F
  0
LAYER
  5
76
330
2
100
AcDbSymbolTableRecord
100
AcDbLayerTableRecord
  2
ANTET
 70
     0
 62
     7
  6
Continuous
370
    -3
390
F
  0
LAYER
  5
77
330
2
100
AcDbSymbolTableRecord
100
AcDbLayerTableRecord
  2
OLCU
 70
     0
 62
   150
  6
Continuous
370
    -3
390
F
  0
LAYER
  5
78
330
2
100
AcDbSymbolTableRecord
100
AcDbLayerTableRecord
  2
METIN
 70
     0
 62
    96
  6
Continuous
370
    -3
390
F
  0
LAYER
  5
79
330
2
100
AcDbSymbolTableRecord
100
AcDbLayerTableRecord
  2
BALON
 70
     0
 62
     5
  6
Continuous
370
    -3
390
F
  0
LAYER
  5
7A
330
2
100
AcDbSymbolTableRecord
100
AcDbLayerTableRecord
  2
VURGU
 70
     0
 62
     7
  6
Continuous
370
    -3
390
F
  0
LAYER
  5
7B
330
2
100
AcDbSymbolTableRecord
100
AcDbLayerTableRecord
  2
SILIK
 70
     0
 62
     7
  6
Continuous
370
    -3
390
F
  0
LAYER
  5
7C
330
2
100
AcDbSymbolTableRecord
100
AcDbLayerTableRecord
  2
MODEL
 70
     0
 62
     7
  6
Continuous
370
    -3
390
F
  0
LAYER
  5
7D
330
2
100
AcDbSymbolTableRecord
100
AcDbLayerTableRecord
  2
DETAYLANDıRMA
 70
     0
 62
   190
  6
Continuous
370
    -3
390
F
  0
LAYER
  5
7E
330
2
100
AcDbSymbolTableRecord
100
AcDbLayerTableRecord
  2
TOLERANS
 70
     0
 62
   230
  6
Continuous
370
    -3
390
F
  0
LAYER
  5
7F
330
2
100
AcDbSymbolTableRecord
100
AcDbLayerTableRecord
  2
MERKEZ_CIZGILERI
 70
     0
 62
    30
  6
Continuous
370
    -3
390
F
  0
LAYER
  5
80
330
2
100
AcDbSymbolTableRecord
100
AcDbLayerTableRecord
  2
KESIT-DETAY_CIZGILERI
 70
     0
 62
     7
  6
Continuous
370
    -3
390
F
  0
LAYER
  5
81
330
2
100
AcDbSymbolTableRecord
100
AcDbLayerTableRecord
  2
\U+041E\U+0421\U+0415\U+0412\U+042B\U+0415
 70
     0
 62
     7
  6
Continuous
370
    -3
390
F
  0
LAYER
  5
82
330
2
100
AcDbSymbolTableRecord
100
AcDbLayerTableRecord
  2
\U+0412\U+041E\U+0414\U+042F\U+041D\U+042B\U+0415_\U+0417\U+041D\U+0410\U+041A\U+0418
 70
     0
 62
    11
  6
Continuous
370
    -3
390
F
  0
ENDTAB
  0
TABLE
  2
STYLE
  5
3
330
0
100
AcDbSymbolTable
 70
     1
  0
STYLE
  5
11
330
3
100
AcDbSymbolTableRecord
100
AcDbTextStyleTableRecord
  2
Standard
 70
     0
 40
0.0
 41
1.0
 50
0.0
 71
     0
 42
3.5
  3
txt
  4

  0
ENDTAB
  0
TABLE
  2
VIEW
  5
6
330
0
100
AcDbSymbolTable
 70
     0
  0
ENDTAB
  0
TABLE
  2
UCS
  5
7
330
0
100
AcDbSymbolTable
 70
     0
  0
ENDTAB
  0
TABLE
  2
APPID
  5
9
330
0
100
AcDbSymbolTable
 70
     1
  0
APPID
  5
12
330
9
100
AcDbSymbolTableRecord
100
AcDbRegAppTableRecord
  2
ACAD
 70
     0
  0
ENDTAB
  0
TABLE
  2
DIMSTYLE
  5
A
330
0
100
AcDbSymbolTable
 70
     1
100
AcDbDimStyleTable
  0
DIMSTYLE
105
27
330
A
100
AcDbSymbolTableRecord
100
AcDbDimStyleTableRecord
  2
ISO-25
 70
     0
 41
2.5
 42
0.625
 43
3.75
 44
1.25
 73
     0
 74
     0
 77
     1
 78
     8
140
2.5
141
2.5
143
0.0393700787
147
0.625
171
     3
172
     1
178
     0
271
     2
272
     2
274
     3
278
    44
283
     0
284
     8
340
11
  0
ENDTAB
  0
TABLE
  2
BLOCK_RECORD
  5
1
330
0
100
AcDbSymbolTable
 70
     2
  0
BLOCK_RECORD
  5
1F
330
1
100
AcDbSymbolTableRecord
100
AcDbBlockTableRecord
  2
*Model_Space
340
22
  0
BLOCK_RECORD
  5
1B
330
1
100
AcDbSymbolTableRecord
100
AcDbBlockTableRecord
  2
*Paper_Space
340
1E
  0
BLOCK_RECORD
  5
23
330
1
100
AcDbSymbolTableRecord
100
AcDbBlockTableRecord
  2
*Paper_Space0
340
26
  0
BLOCK_RECORD
  5
A2
330
1
100
AcDbSymbolTableRecord
100
AcDbBlockTableRecord
  2
SW_CENTERMARKSYMBOL_0
340
0
102
{BLKREFS
331
AD
102
}
  0
ENDTAB
  0
ENDSEC
  0
SECTION
  2
BLOCKS
  0
BLOCK
  5
20
330
1F
100
AcDbEntity
  8
0
100
AcDbBlockBegin
  2
*Model_Space
 70
     0
 10
0.0
 20
0.0
 30
0.0
  3
*Model_Space
  1

  0
ENDBLK
  5
21
330
1F
100
AcDbEntity
  8
0
100
AcDbBlockEnd
  0
BLOCK
  5
1C
330
1B
100
AcDbEntity
 67
     1
  8
0
100
AcDbBlockBegin
  2
*Paper_Space
 70
     0
 10
0.0
 20
0.0
 30
0.0
  3
*Paper_Space
  1

  0
ENDBLK
  5
1D
330
1B
100
AcDbEntity
 67
     1
  8
0
100
AcDbBlockEnd
  0
BLOCK
  5
24
330
23
100
AcDbEntity
  8
0
100
AcDbBlockBegin
  2
*Paper_Space0
 70
     0
 10
0.0
 20
0.0
 30
0.0
  3
*Paper_Space0
  1

  0
ENDBLK
  5
25
330
23
100
AcDbEntity
  8
0
100
AcDbBlockEnd
  0
BLOCK
  5
A3
330
A2
100
AcDbEntity
  8
0
100
AcDbBlockBegin
  2
SW_CENTERMARKSYMBOL_0
 70
     0
 10
0.0
 20
0.0
 30
0.0
  3
SW_CENTERMARKSYMBOL_0
  1

  0
LINE
  5
A5
330
A2
100
AcDbEntity
  8
FORMAT
 62
     0
100
AcDbLine
 10
0.0
 20
0.0
 30
0.0
 11
0.0
 21
2.5
 31
0.0
  0
LINE
  5
A6
330
A2
100
AcDbEntity
  8
FORMAT
 62
     0
100
AcDbLine
 10
0.0
 20
0.0
 30
0.0
 11
-2.5
 21
0.0
 31
0.0
  0
LINE
  5
A7
330
A2
100
AcDbEntity
  8
FORMAT
 62
     0
100
AcDbLine
 10
0.0
 20
0.0
 30
0.0
 11
0.0
 21
-2.5
 31
0.0
  0
LINE
  5
A8
330
A2
100
AcDbEntity
  8
FORMAT
 62
     0
100
AcDbLine
 10
0.0
 20
0.0
 30
0.0
 11
2.5
 21
0.0
 31
0.0
  0
LINE
  5
A9
330
A2
100
AcDbEntity
  8
FORMAT
 62
     0
100
AcDbLine
 10
0.0
 20
5.0
 30
0.0
 11
0.0
 21
180.0
 31
0.0
  0
LINE
  5
AA
330
A2
100
AcDbEntity
  8
FORMAT
 62
     0
100
AcDbLine
 10
-5.0
 20
0.0
 30
0.0
 11
-180.0
 21
0.0
 31
0.0
  0
LINE
  5
AB
330
A2
100
AcDbEntity
  8
FORMAT
 62
     0
100
AcDbLine
 10
0.0
 20
-5.0
 30
0.0
 11
0.0
 21
-180.0
 31
0.0
  0
LINE
  5
AC
330
A2
100
AcDbEntity
  8
FORMAT
 62
     0
100
AcDbLine
 10
5.0
 20
0.0
 30
0.0
 11
180.0
 21
0.0
 31
0.0
  0
ENDBLK
  5
A4
330
A2
100
AcDbEntity
  8
0
100
AcDbBlockEnd
  0
ENDSEC
  0
SECTION
  2
ENTITIES
  0
LINE
  5
83
330
1F
100
AcDbEntity
  8
0
  6
Continuous
 62
     7
370
    25
100
AcDbLine
 10
92.3086746558
 20
458.6571071789
 30
0.0
 11
-58.7476825773
 21
197.019821645
 31
0.0
  0
LINE
  5
84
330
1F
100
AcDbEntity
  8
0
  6
Continuous
 62
     7
370
    25
100
AcDbLine
 10
296.2523174227
 20
101.8978583319
 30
0.0
 11
399.7476929992
 21
281.1571071789
 31
0.0
  0
LINE
  5
85
330
1F
100
AcDbEntity
  8
0
  6
Continuous
 62
     7
370
    25
100
AcDbLine
 10
-58.7476825773
 20
197.019821645
 30
0.0
 11
-58.7476825773
 21
-105.0928928211
 31
0.0
  0
LINE
  5
86
330
1F
100
AcDbEntity
  8
0
  6
Continuous
 62
     7
370
    25
100
AcDbLine
 10
296.2523174227
 20
-105.0928928211
 30
0.0
 11
296.2523174227
 21
101.8978583319
 31
0.0
  0
LINE
  5
87
330
1F
100
AcDbEntity
  8
0
  6
Continuous
 62
     7
370
    25
100
AcDbLine
 10
246.0281838275
 20
369.9071071789
 30
0.0
 11
399.7476929992
 21
281.1571071789
 31
0.0
  0
LINE
  5
88
330
1F
100
AcDbEntity
  8
0
  6
Continuous
 62
     7
370
    25
100
AcDbLine
 10
92.3086746558
 20
458.6571071789
 30
0.0
 11
246.0281838275
 21
369.9071071789
 31
0.0
  0
LINE
  5
89
330
1F
100
AcDbEntity
  8
0
  6
Continuous
 62
     7
370
    25
100
AcDbLine
 10
296.2523174227
 20
101.8978583319
 30
0.0
 11
-58.7476825773
 21
197.019821645
 31
0.0
  0
LINE
  5
8A
330
1F
100
AcDbEntity
  8
0
  6
Continuous
 62
     7
370
    25
100
AcDbLine
 10
118.7523174227
 20
-105.0928928211
 30
0.0
 11
296.2523174227
 21
-105.0928928211
 31
0.0
  0
LINE
  5
8B
330
1F
100
AcDbEntity
  8
0
  6
Continuous
 62
     7
370
    25
100
AcDbLine
 10
-58.7476825773
 20
-105.0928928211
 30
0.0
 11
118.7523174227
 21
-105.0928928211
 31
0.0
  0
LINE
  5
8C
330
1F
100
AcDbEntity
  8
0
  6
Continuous
 62
     7
370
    25
100
AcDbLine
 10
-807.7537899771
 20
369.9071071789
 30
0.0
 11
-807.7537899771
 21
149.4588399884
 31
0.0
  0
LINE
  5
8D
330
1F
100
AcDbEntity
  8
0
  6
Continuous
 62
     7
370
    25
100
AcDbLine
 10
-452.7537899771
 20
149.4588399884
 30
0.0
 11
-452.7537899771
 21
369.9071071789
 31
0.0
  0
LINE
  5
8E
330
1F
100
AcDbEntity
  8
0
  6
Continuous
 62
     7
370
    25
100
AcDbLine
 10
-807.7537899771
 20
149.4588399884
 30
0.0
 11
-807.7537899771
 21
-105.0928928211
 31
0.0
  0
LINE
  5
8F
330
1F
100
AcDbEntity
  8
0
  6
Continuous
 62
     7
370
    25
100
AcDbLine
 10
-452.7537899771
 20
-105.0928928211
 30
0.0
 11
-452.7537899771
 21
149.4588399884
 31
0.0
  0
LWPOLYLINE
  5
90
330
1F
100
AcDbEntity
  8
0
  6
Continuous
 62
     7
370
    25
100
AcDbPolyline
 90
      142
 70
   128
 43
0.0
 10
-807.7537899771
 20
369.9071071789
 10
-807.5775850672
 20
365.9535741119
 10
-807.049320176
 20
362.0078904188
 10
-806.1700441246
 20
358.0778898895
 10
-804.9415026341
 20
354.1713751761
 10
-803.36613486
 20
350.296102302
 10
-801.4470685492
 20
346.4597652628
 10
-799.1881138303
 20
342.6699807506
 10
-796.5937556485
 20
338.9342730318
 10
-793.6691448622
 20
335.2600590081
 10
-790.4200880151
 20
331.6546334915
 10
-786.853035809
 20
328.1251547207
 10
-782.9750702958
 20
324.6786301488
 10
-778.793890817
 20
321.3219025316
 10
-774.3177987176
 20
318.061636341
 10
-769.5556808641
 20
314.9043045337
 10
-764.5169920005
 20
311.8561756997
 10
-759.2117359774
 20
308.9233016167
 10
-753.6504458893
 20
306.1115052347
 10
-747.8441631631
 20
303.4263691152
 10
-741.8044156357
 20
300.8732243474
 10
-735.5431946666
 20
298.4571399638
 10
-729.0729313305
 20
296.1829128764
 10
-722.4064717364
 20
294.0550583526
 10
-715.5570515227
 20
292.0778010505
 10
-708.5382695793
 20
290.2550666316
 10
-701.364061048
 20
288.5904739661
 10
-694.0486696558
 20
287.0873279489
 10
-686.606619435
 20
285.7486129372
 10
-679.0526858877
 20
284.5769868258
 10
-671.4018666496
 20
283.5747757697
 10
-663.6693517141
 20
282.7439695664
 10
-655.8704932738
 20
282.0862177046
 10
-648.0207752404
 20
281.6028260898
 10
-640.1357825023
 20
281.2947544512
 10
-632.2311699827
 20
281.1626144366
 10
-624.3226315582
 20
281.2066683978
 10
-616.4258688998
 20
281.4268288697
 10
-608.5565602986
 20
281.822658744
 10
-600.7303295386
 20
282.3933721373
 10
-592.9627148765
 20
283.1378359508
 10
-585.2691381921
 20
284.0545721205
 10
-577.6648743699
 20
285.1417605518
 10
-570.1650209718
 20
286.3972427325
 10
-562.7844682624
 20
287.818526019
 10
-555.5378696461
 20
289.402788585
 10
-548.4396125735
 20
291.1468850236
 10
-541.5037899771
 20
293.047352593
 10
-534.7441722906
 20
295.1004180906
 10
-528.1741801092
 20
297.302005345
 10
-521.8068575443
 20
299.6477433084
 10
-515.6548463254
 20
302.1329747353
 10
-509.7303607013
 20
304.7527654287
 10
-504.0451631899
 20
307.5019140366
 10
-498.6105412246
 20
310.374962379
 10
-493.4372847442
 20
313.3662062844
 10
-488.5356647705
 20
316.4697069148
 10
-483.9154130164
 20
319.679302557
 10
-479.5857025641
 20
322.988620856
 10
-475.5551296528
 20
326.3910914667
 10
-471.831696612
 20
329.8799590985
 10
-468.4227959733
 20
333.4482969277
 10
-465.3351957934
 20
337.0890203498
 10
-462.5750262167
 20
340.7949010456
 10
-460.1477673043
 20
344.5585813319
 10
-458.0582381542
 20
348.3725887699
 10
-456.3105873331
 20
352.2293510009
 10
-454.9082846399
 20
356.1212107805
 10
-453.8541142167
 20
360.0404411812
 10
-453.1501690215
 20
363.979260934
 10
-452.7978466722
 20
367.9298498768
 10
-452.7978466722
 20
371.884364481
 10
-453.1501690215
 20
375.8349534238
 10
-453.8541142167
 20
379.7737731766
 10
-454.9082846399
 20
383.6930035773
 10
-456.3105873331
 20
387.5848633568
 10
-458.0582381542
 20
391.4416255878
 10
-460.1477673043
 20
395.2556330258
 10
-462.5750262167
 20
399.0193133121
 10
-465.3351957934
 20
402.7251940079
 10
-468.4227959733
 20
406.3659174301
 10
-471.831696612
 20
409.9342552593
 10
-475.5551296528
 20
413.4231228911
 10
-479.5857025641
 20
416.8255935017
 10
-483.9154130164
 20
420.1349118007
 10
-488.5356647705
 20
423.344507443
 10
-493.4372847442
 20
426.4480080734
 10
-498.6105412246
 20
429.4392519787
 10
-504.0451631899
 20
432.3123003212
 10
-509.7303607014
 20
435.0614489291
 10
-515.6548463254
 20
437.6812396225
 10
-521.8068575443
 20
440.1664710493
 10
-528.1741801092
 20
442.5122090127
 10
-534.7441722906
 20
444.7137962671
 10
-541.5037899771
 20
446.7668617648
 10
-548.4396125735
 20
448.6673293341
 10
-555.5378696461
 20
450.4114257728
 10
-562.7844682624
 20
451.9956883387
 10
-570.1650209718
 20
453.4169716253
 10
-577.6648743699
 20
454.672453806
 10
-585.2691381921
 20
455.7596422372
 10
-592.9627148765
 20
456.676378407
 10
-600.7303295386
 20
457.4208422205
 10
-608.5565602986
 20
457.9915556137
 10
-616.4258688998
 20
458.3873854881
 10
-624.3226315582
 20
458.6075459599
 10
-632.2311699827
 20
458.6515999211
 10
-640.1357825023
 20
458.5194599066
 10
-648.0207752404
 20
458.211388268
 10
-655.8704932738
 20
457.7279966532
 10
-663.6693517141
 20
457.0702447914
 10
-671.4018666496
 20
456.239438588
 10
-679.0526858877
 20
455.237227532
 10
-686.606619435
 20
454.0656014205
 10
-694.0486696558
 20
452.7268864088
 10
-701.364061048
 20
451.2237403916
 10
-708.5382695793
 20
449.5591477262
 10
-715.5570515227
 20
447.7364133072
 10
-722.4064717364
 20
445.7591560051
 10
-729.0729313305
 20
443.6313014813
 10
-735.5431946666
 20
441.357074394
 10
-741.8044156357
 20
438.9409900104
 10
-747.8441631631
 20
436.3878452426
 10
-753.6504458893
 20
433.702709123
 10
-759.2117359774
 20
430.8909127411
 10
-764.5169920005
 20
427.9580386581
 10
-769.5556808641
 20
424.9099098241
 10
-774.3177987176
 20
421.7525780168
 10
-778.793890817
 20
418.4923118261
 10
-782.9750702958
 20
415.1355842089
 10
-786.853035809
 20
411.6890596371
 10
-790.4200880151
 20
408.1595808662
 10
-793.6691448622
 20
404.5541553496
 10
-796.5937556485
 20
400.879941326
 10
-799.1881138303
 20
397.1442336071
 10
-801.4470685493
 20
393.354449095
 10
-803.36613486
 20
389.5181120558
 10
-804.9415026341
 20
385.6428391817
 10
-806.1700441246
 20
381.7363244683
 10
-807.049320176
 20
377.8063239389
 10
-807.5775850672
 20
373.8606402459
 10
-807.7537899771
 20
369.9071071789
  0
ELLIPSE
  5
91
330
1F
100
AcDbEntity
  8
0
  6
Continuous
 62
     7
370
    25
100
AcDbEllipse
 10
-630.2537899771
 20
149.4588399884
 30
0.0
 11
177.4999999999999
 21
0.0
 31
0.0
210
0.0
220
0.0
230
1.0
 40
0.2679491924
 41
3.141592653589849
 42
6.283185307179586
  0
LWPOLYLINE
  5
92
330
1F
100
AcDbEntity
  8
0
  6
Continuous
 62
     7
370
    25
100
AcDbPolyline
 90
      129
 70
   128
 43
0.0
 10
-775.5537899771
 20
369.9071071789
 10
-775.3787697637
 20
373.4718737188
 10
-774.8541307626
 20
377.0280524238
 10
-773.981136875
 20
380.5670761481
 10
-772.7618912197
 20
384.0804190734
 10
-771.1993310663
 20
387.5596172489
 10
-769.297220759
 20
390.9962889814
 10
-767.0601426482
 20
394.3821550278
 10
-764.493486051
 20
397.7090585402
 10
-761.6034342679
 20
400.9689847166
 10
-758.3969496869
 20
404.1540801093
 10
-754.8817570101
 20
407.2566715445
 10
-751.0663246447
 20
410.2692846078
 10
-746.9598443012
 20
413.1846616503
 10
-742.5722088507
 20
415.9957792734
 10
-737.9139884912
 20
418.6958652485
 10
-732.9964052835
 20
421.2784148321
 10
-727.8313061164
 20
423.7372064359
 10
-722.4311341661
 20
426.0663166157
 10
-716.8088989198
 20
428.260134341
 10
-710.9781448348
 20
430.3133745127
 10
-704.9529187084
 20
432.2210906954
 10
-698.7477358379
 20
433.9786870338
 10
-692.3775450525
 20
435.5819293243
 10
-685.8576926997
 20
437.0269552158
 10
-679.203885675
 20
438.3102835144
 10
-672.4321535822
 20
439.4288225698
 10
-665.558810117
 20
440.3798777235
 10
-658.600413766
 20
441.1611578002
 10
-651.5737279155
 20
441.7707806278
 10
-644.495680467
 20
442.2072775716
 10
-637.3833230569
 20
442.4695970722
 10
-630.2537899771
 20
442.5571071789
 10
-623.1242568973
 20
442.4695970722
 10
-616.0118994872
 20
442.2072775716
 10
-608.9338520387
 20
441.7707806278
 10
-601.9071661882
 20
441.1611578002
 10
-594.9487698372
 20
440.3798777235
 10
-588.075426372
 20
439.4288225698
 10
-581.3036942792
 20
438.3102835144
 10
-574.6498872544
 20
437.0269552158
 10
-568.1300349017
 20
435.5819293243
 10
-561.7598441163
 20
433.9786870338
 10
-555.5546612458
 20
432.2210906954
 10
-549.5294351193
 20
430.3133745127
 10
-543.6986810343
 20
428.260134341
 10
-538.0764457881
 20
426.0663166157
 10
-532.6762738378
 20
423.7372064359
 10
-527.5111746707
 20
421.2784148321
 10
-522.593591463
 20
418.6958652485
 10
-517.9353711035
 20
415.9957792734
 10
-513.547735653
 20
413.1846616503
 10
-509.4412553095
 20
410.2692846078
 10
-505.6258229441
 20
407.2566715445
 10
-502.1106302673
 20
404.1540801093
 10
-498.9041456863
 20
400.9689847166
 10
-496.0140939032
 20
397.7090585402
 10
-493.447437306
 20
394.3821550278
 10
-491.2103591952
 20
390.9962889814
 10
-489.3082488879
 20
387.5596172489
 10
-487.7456887345
 20
384.0804190734
 10
-486.5264430792
 20
380.5670761481
 10
-485.6534491916
 20
377.0280524238
 10
-485.1288101905
 20
373.4718737188
 10
-484.9537899771
 20
369.9071071789
 10
-485.1288101905
 20
366.342340639
 10
-485.6534491916
 20
362.7861619339
 10
-486.5264430792
 20
359.2471382097
 10
-487.7456887345
 20
355.7337952844
 10
-489.3082488879
 20
352.2545971089
 10
-491.2103591952
 20
348.8179253763
 10
-493.447437306
 20
345.4320593299
 10
-496.0140939032
 20
342.1051558176
 10
-498.9041456863
 20
338.8452296412
 10
-502.1106302673
 20
335.6601342485
 10
-505.6258229441
 20
332.5575428132
 10
-509.4412553095
 20
329.54492975
 10
-513.547735653
 20
326.6295527075
 10
-517.9353711035
 20
323.8184350844
 10
-522.593591463
 20
321.1183491092
 10
-527.5111746707
 20
318.5357995257
 10
-532.6762738378
 20
316.0770079218
 10
-538.0764457881
 20
313.7478977421
 10
-543.6986810343
 20
311.5540800168
 10
-549.5294351194
 20
309.5008398451
 10
-555.5546612458
 20
307.5931236624
 10
-561.7598441163
 20
305.835527324
 10
-568.1300349017
 20
304.2322850335
 10
-574.6498872545
 20
302.7872591419
 10
-581.3036942792
 20
301.5039308433
 10
-588.075426372
 20
300.3853917879
 10
-594.9487698372
 20
299.4343366343
 10
-601.9071661882
 20
298.6530565576
 10
-608.9338520387
 20
298.0434337299
 10
-616.0118994872
 20
297.6069367861
 10
-623.1242568973
 20
297.3446172856
 10
-630.2537899771
 20
297.2571071789
 10
-637.3833230569
 20
297.3446172856
 10
-644.495680467
 20
297.6069367861
 10
-651.5737279155
 20
298.0434337299
 10
-658.600413766
 20
298.6530565576
 10
-665.558810117
 20
299.4343366343
 10
-672.4321535822
 20
300.3853917879
 10
-679.203885675
 20
301.5039308433
 10
-685.8576926997
 20
302.7872591419
 10
-692.3775450525
 20
304.2322850335
 10
-698.7477358379
 20
305.835527324
 10
-704.9529187084
 20
307.5931236624
 10
-710.9781448348
 20
309.5008398451
 10
-716.8088989199
 20
311.5540800168
 10
-722.4311341661
 20
313.7478977421
 10
-727.8313061164
 20
316.0770079218
 10
-732.9964052835
 20
318.5357995257
 10
-737.9139884912
 20
321.1183491092
 10
-742.5722088507
 20
323.8184350844
 10
-746.9598443012
 20
326.6295527075
 10
-751.0663246447
 20
329.54492975
 10
-754.8817570101
 20
332.5575428132
 10
-758.3969496869
 20
335.6601342485
 10
-761.6034342679
 20
338.8452296412
 10
-764.493486051
 20
342.1051558176
 10
-767.0601426482
 20
345.4320593299
 10
-769.297220759
 20
348.8179253763
 10
-771.1993310663
 20
352.2545971089
 10
-772.7618912197
 20
355.7337952844
 10
-773.981136875
 20
359.2471382097
 10
-774.8541307626
 20
362.7861619339
 10
-775.3787697637
 20
366.342340639
 10
-775.5537899771
 20
369.9071071789
  0
LINE
  5
93
330
1F
100
AcDbEntity
  8
0
  6
Continuous
 62
     7
370
    25
100
AcDbLine
 10
-807.7537899771
 20
-105.0928928211
 30
0.0
 11
-452.7537899771
 21
-105.0928928211
 31
0.0
  0
LINE
  5
94
330
1F
100
AcDbEntity
  8
0
  6
Continuous
 62
     7
370
    25
100
AcDbLine
 10
639.1155171674
 20
369.9071071789
 30
0.0
 11
639.1155171674
 21
149.4588399884
 31
0.0
  0
LINE
  5
95
330
1F
100
AcDbEntity
  8
0
  6
Continuous
 62
     7
370
    25
100
AcDbLine
 10
994.1155171674
 20
149.4588399884
 30
0.0
 11
994.1155171674
 21
369.9071071789
 31
0.0
  0
LINE
  5
96
330
1F
100
AcDbEntity
  8
0
  6
Continuous
 62
     7
370
    25
100
AcDbLine
 10
639.1155171674
 20
149.4588399884
 30
0.0
 11
639.1155171674
 21
-105.0928928211
 31
0.0
  0
LINE
  5
97
330
1F
100
AcDbEntity
  8
0
  6
Continuous
 62
     7
370
    25
100
AcDbLine
 10
994.1155171674
 20
-105.0928928211
 30
0.0
 11
994.1155171674
 21
149.4588399884
 31
0.0
  0
LWPOLYLINE
  5
98
330
1F
100
AcDbEntity
  8
0
  6
Continuous
 62
     7
370
    25
100
AcDbPolyline
 90
       72
 70
   128
 43
0.0
 10
639.1155171674
 20
369.9071071789
 10
639.1595738624
 20
371.884364481
 10
639.5118962118
 20
375.8349534238
 10
640.215841407
 20
379.7737731766
 10
641.2700118302
 20
383.6930035773
 10
642.6723145234
 20
387.5848633568
 10
644.4199653445
 20
391.4416255878
 10
646.5094944946
 20
395.2556330258
 10
648.936753407
 20
399.0193133121
 10
651.6969229837
 20
402.7251940079
 10
654.7845231636
 20
406.3659174301
 10
658.1934238023
 20
409.9342552593
 10
661.9168568431
 20
413.4231228911
 10
665.9474297544
 20
416.8255935017
 10
670.2771402067
 20
420.1349118007
 10
674.8973919608
 20
423.344507443
 10
679.7990119344
 20
426.4480080734
 10
684.9722684149
 20
429.4392519787
 10
690.4068903802
 20
432.3123003212
 10
696.0920878916
 20
435.0614489291
 10
702.0165735157
 20
437.6812396225
 10
708.1685847346
 20
440.1664710493
 10
714.5359072995
 20
442.5122090127
 10
721.1058994809
 20
444.7137962671
 10
727.8655171674
 20
446.7668617648
 10
734.8013397638
 20
448.6673293341
 10
741.8995968364
 20
450.4114257728
 10
749.1461954527
 20
451.9956883387
 10
756.526748162
 20
453.4169716253
 10
764.0266015602
 20
454.672453806
 10
771.6308653824
 20
455.7596422372
 10
779.3244420667
 20
456.676378407
 10
787.0920567289
 20
457.4208422205
 10
794.9182874889
 20
457.9915556137
 10
802.78759609
 20
458.3873854881
 10
810.6843587485
 20
458.6075459599
 10
818.592897173
 20
458.6515999211
 10
826.4975096926
 20
458.5194599066
 10
834.3825024307
 20
458.211388268
 10
842.2322204641
 20
457.7279966532
 10
850.0310789044
 20
457.0702447914
 10
857.7635938399
 20
456.239438588
 10
865.414413078
 20
455.237227532
 10
872.9683466253
 20
454.0656014205
 10
880.410396846
 20
452.7268864088
 10
887.7257882383
 20
451.2237403916
 10
894.8999967696
 20
449.5591477262
 10
901.918778713
 20
447.7364133072
 10
908.7681989267
 20
445.7591560051
 10
915.4346585208
 20
443.6313014813
 10
921.9049218568
 20
441.357074394
 10
928.1661428259
 20
438.9409900104
 10
934.2058903534
 20
436.3878452426
 10
940.0121730796
 20
433.702709123
 10
945.5734631677
 20
430.8909127411
 10
950.8787191908
 20
427.9580386581
 10
955.9174080543
 20
424.9099098241
 10
960.6795259079
 20
421.7525780168
 10
965.1556180073
 20
418.4923118261
 10
969.3367974861
 20
415.1355842089
 10
973.2147629993
 20
411.6890596371
 10
976.7818152054
 20
408.1595808662
 10
980.0308720524
 20
404.5541553496
 10
982.9554828388
 20
400.879941326
 10
985.5498410205
 20
397.1442336071
 10
987.8087957395
 20
393.354449095
 10
989.7278620503
 20
389.5181120558
 10
991.3032298244
 20
385.6428391817
 10
992.5317713149
 20
381.7363244683
 10
993.4110473663
 20
377.8063239389
 10
993.9393122575
 20
373.8606402459
 10
994.1155171674
 20
369.9071071789
  0
ELLIPSE
  5
99
330
1F
100
AcDbEntity
  8
0
  6
Continuous
 62
     7
370
    25
100
AcDbEllipse
 10
816.6155171674
 20
149.4588399884
 30
0.0
 11
177.4999999999999
 21
0.0
 31
0.0
210
0.0
220
0.0
230
1.0
 40
0.2679491924
 41
1.570796326794897
 42
3.141592653589849
  0
ELLIPSE
  5
9A
330
1F
100
AcDbEntity
  8
0
  6
Continuous
 62
     7
370
    25
100
AcDbEllipse
 10
816.6155171674
 20
149.4588399884
 30
0.0
 11
177.4999999999999
 21
0.0
 31
0.0
210
0.0
220
0.0
230
1.0
 40
0.2679491924
 41
0.0
 42
1.570796326794904
  0
LINE
  5
9B
330
1F
100
AcDbEntity
  8
0
  6
Continuous
 62
     7
370
    25
100
AcDbLine
 10
639.1155171674
 20
-105.0928928211
 30
0.0
 11
994.1155171674
 21
-105.0928928211
 31
0.0
  0
LINE
  5
9C
330
1F
100
AcDbEntity
  8
0
  6
Continuous
 62
     7
370
    25
100
AcDbLine
 10
246.0281838275
 20
984.2577994229
 30
0.0
 11
118.7523174227
 21
984.2577994229
 31
0.0
  0
LINE
  5
9D
330
1F
100
AcDbEntity
  8
0
  6
Continuous
 62
     7
370
    25
100
AcDbLine
 10
118.7523174227
 20
629.2577994229
 30
0.0
 11
246.0281838275
 21
629.2577994229
 31
0.0
  0
CIRCLE
  5
9E
330
1F
100
AcDbEntity
  8
0
  6
Continuous
 62
     7
370
    25
100
AcDbCircle
 10
118.7523174227
 20
806.7577994229
 30
0.0
 40
177.5
  0
CIRCLE
  5
9F
330
1F
100
AcDbEntity
  8
0
  6
Continuous
 62
     7
370
    25
100
AcDbCircle
 10
118.7523174227
 20
806.7577994229
 30
0.0
 40
145.3000000000001
  0
LWPOLYLINE
  5
A0
330
1F
100
AcDbEntity
  8
0
  6
Continuous
 62
     7
370
    25
100
AcDbPolyline
 90
       72
 70
   128
 43
0.0
 10
246.0281838275
 20
984.2577994229
 10
252.875903969
 20
984.081594513
 10
259.7100285959
 20
983.5533296218
 10
266.5169891866
 20
982.6740535704
 10
273.2832711507
 20
981.4455120799
 10
279.9954406618
 20
979.8701443059
 10
286.6401713286
 20
977.9510779951
 10
293.2042706534
 20
975.6921232761
 10
299.6747062247
 20
973.0977650944
 10
306.0386315916
 20
970.173154308
 10
312.2834117692
 20
966.9240974609
 10
318.3966483246
 20
963.3570452548
 10
324.3662039925
 20
959.4790797416
 10
330.1802267727
 20
955.2979002629
 10
335.8271734611
 20
950.8218081634
 10
341.2958325677
 20
946.0596903099
 10
346.5753465762
 20
941.0210014463
 10
351.6552335001
 20
935.7157454232
 10
356.5254076942
 20
930.1544553352
 10
361.1761998785
 20
924.348172609
 10
365.5983763355
 20
918.3084250815
 10
369.7831572431
 20
912.0472041124
 10
373.7222341064
 20
905.5769407763
 10
377.4077862528
 20
898.9104811822
 10
380.8324963596
 20
892.0610609685
 10
383.989564982
 20
885.0422790251
 10
386.8727240524
 20
877.8680704938
 10
389.4762493254
 20
870.5526791016
 10
391.7949717425
 20
863.1106288809
 10
393.8242876951
 20
855.5566953335
 10
395.560168164
 20
847.9058760954
 10
396.9991667194
 20
840.1733611599
 10
398.1384263628
 20
832.3745027196
 10
398.9756851997
 20
824.5247846862
 10
399.50928093
 20
816.6397919481
 10
399.738154149
 20
808.7351794285
 10
399.66185045
 20
800.826641004
 10
399.2805213268
 20
792.9298783456
 10
398.5949238733
 20
785.0605697444
 10
397.6064192797
 20
777.2343389844
 10
396.3169701303
 20
769.4667243223
 10
394.7291365072
 20
761.7731476379
 10
392.8460709069
 20
754.1688838157
 10
390.6715119819
 20
746.6690304176
 10
388.2097771176
 20
739.2884777082
 10
385.4657538609
 20
732.0418790919
 10
382.4448902158
 20
724.9436220193
 10
379.1531838275
 20
718.0077994229
 10
375.5971700743
 20
711.2481817364
 10
371.7839090925
 20
704.678189555
 10
367.7209717586
 20
698.3108669901
 10
363.4164246587
 20
692.1588557712
 10
358.8788140726
 20
686.2343701472
 10
354.1171490061
 20
680.5491726357
 10
349.1408833044
 20
675.1145506704
 10
343.9598968825
 20
669.94129419
 10
338.5844761093
 20
665.0396742163
 10
333.0252933852
 20
660.4194224622
 10
327.2933859529
 20
656.0897120099
 10
321.400133984
 20
652.0591390986
 10
315.3572379849
 20
648.3357060578
 10
309.1766955661
 20
644.9268054191
 10
302.8707776226
 20
641.8392052392
 10
296.4520039707
 20
639.0790356625
 10
289.9331184914
 20
636.6517767501
 10
283.3270638283
 20
634.5622476
 10
276.6469556916
 20
632.8145967789
 10
269.9060568175
 20
631.4122940857
 10
263.1177506368
 20
630.3581236625
 10
256.2955147031
 20
629.6541784673
 10
249.4528939343
 20
629.301856118
 10
246.0281838275
 20
629.2577994229
  0
LWPOLYLINE
  5
A1
330
1F
100
AcDbEntity
  8
0
  6
Continuous
 62
     7
370
    25
100
AcDbPolyline
 90
       47
 70
   128
 43
0.0
 10
186.959248661
 20
935.0539588785
 10
186.7106867066
 20
934.9009591327
 10
181.3368407057
 20
931.3857664559
 10
176.1188418166
 20
927.5703340905
 10
171.0692606558
 20
923.463853747
 10
166.2002621065
 20
919.0762182965
 10
161.5235760127
 20
914.417997937
 10
157.0504689209
 20
909.5004147293
 10
152.7917169378
 20
904.3353155622
 10
148.7575797701
 20
898.9351436119
 10
144.9577760074
 20
893.3129083657
 10
141.4014597098
 20
887.4821542807
 10
138.0971983549
 20
881.4569281542
 10
135.0529521976
 20
875.2517452837
 10
132.2760550936
 20
868.8815544983
 10
129.7731968312
 20
862.3617021456
 10
127.5504070152
 20
855.7078951208
 10
125.613040541
 20
848.936163028
 10
123.9657646941
 20
842.0628195628
 10
122.6125479063
 20
835.1044232118
 10
121.5566501954
 20
828.0777373613
 10
120.8006153114
 20
820.9996899128
 10
120.3462646086
 20
813.8873325027
 10
120.1946926576
 20
806.7577994229
 10
120.3462646086
 20
799.6282663431
 10
120.8006153114
 20
792.515908933
 10
121.5566501954
 20
785.4378614845
 10
122.6125479063
 20
778.411175634
 10
123.9657646941
 20
771.452779283
 10
125.613040541
 20
764.5794358178
 10
127.5504070152
 20
757.807703725
 10
129.7731968312
 20
751.1538967003
 10
132.2760550936
 20
744.6340443475
 10
135.0529521976
 20
738.2638535621
 10
138.0971983549
 20
732.0586706916
 10
141.4014597098
 20
726.0334445652
 10
144.9577760074
 20
720.2026904802
 10
148.7575797701
 20
714.5804552339
 10
152.7917169378
 20
709.1802832836
 10
157.0504689209
 20
704.0151841165
 10
161.5235760127
 20
699.0976009088
 10
166.2002621065
 20
694.4393805493
 10
171.0692606558
 20
690.0517450988
 10
176.1188418166
 20
685.9452647553
 10
181.3368407057
 20
682.1298323899
 10
186.7106867066
 20
678.6146397131
 10
186.959248661
 20
678.4616399673
  0
INSERT
  5
AD
330
1F
100
AcDbEntity
  8
FORMAT
 62
     7
100
AcDbBlockReference
  2
SW_CENTERMARKSYMBOL_0
 10
118.7523174227
 20
806.7577994229
 30
0.0
  0
LINE
  5
AE
330
1F
100
AcDbEntity
  8
0
  6
Continuous
 62
     7
370
    25
100
AcDbLine
 10
246.0281838275
 20
-300.914592395
 30
0.0
 11
118.7523174227
 21
-300.914592395
 31
0.0
  0
LINE
  5
AF
330
1F
100
AcDbEntity
  8
0
  6
Continuous
 62
     7
370
    25
100
AcDbLine
 10
118.7523174227
 20
-655.914592395
 30
0.0
 11
246.0281838275
 21
-655.914592395
 31
0.0
  0
LWPOLYLINE
  5
B0
330
1F
100
AcDbEntity
  8
0
  6
Continuous
 62
     7
370
    25
100
AcDbPolyline
 90
      142
 70
   128
 43
0.0
 10
246.0281838275
 20
-655.914592395
 10
252.875903969
 20
-655.7383874851
 10
259.7100285959
 20
-655.2101225939
 10
266.5169891866
 20
-654.3308465425
 10
273.2832711507
 20
-653.102305052
 10
279.9954406618
 20
-651.526937278
 10
286.6401713286
 20
-649.6078709672
 10
293.2042706534
 20
-647.3489162482
 10
299.6747062247
 20
-644.7545580665
 10
306.0386315916
 20
-641.8299472801
 10
312.2834117692
 20
-638.580890433
 10
318.3966483246
 20
-635.0138382269
 10
324.3662039925
 20
-631.1358727137
 10
330.1802267727
 20
-626.954693235
 10
335.8271734611
 20
-622.4786011355
 10
341.2958325677
 20
-617.716483282
 10
346.5753465762
 20
-612.6777944184
 10
351.6552335001
 20
-607.3725383953
 10
356.5254076942
 20
-601.8112483073
 10
361.1761998785
 20
-596.0049655811
 10
365.5983763355
 20
-589.9652180536
 10
369.7831572431
 20
-583.7039970845
 10
373.7222341064
 20
-577.2337337484
 10
377.4077862528
 20
-570.5672741543
 10
380.8324963596
 20
-563.7178539406
 10
383.989564982
 20
-556.6990719972
 10
386.8727240524
 20
-549.5248634659
 10
389.4762493254
 20
-542.2094720737
 10
391.7949717425
 20
-534.7674218529
 10
393.8242876951
 20
-527.2134883056
 10
395.560168164
 20
-519.5626690675
 10
396.9991667194
 20
-511.830154132
 10
398.1384263628
 20
-504.0312956917
 10
398.9756851997
 20
-496.1815776583
 10
399.50928093
 20
-488.2965849202
 10
399.738154149
 20
-480.3919724006
 10
399.66185045
 20
-472.4834339761
 10
399.2805213268
 20
-464.5866713177
 10
398.5949238733
 20
-456.7173627165
 10
397.6064192797
 20
-448.8911319565
 10
396.3169701303
 20
-441.1235172944
 10
394.7291365072
 20
-433.42994061
 10
392.8460709069
 20
-425.8256767878
 10
390.6715119819
 20
-418.3258233897
 10
388.2097771176
 20
-410.9452706803
 10
385.4657538609
 20
-403.698672064
 10
382.4448902158
 20
-396.6004149914
 10
379.1531838275
 20
-389.664592395
 10
375.5971700743
 20
-382.9049747085
 10
371.7839090925
 20
-376.3349825271
 10
367.7209717586
 20
-369.9676599622
 10
363.4164246587
 20
-363.8156487433
 10
358.8788140726
 20
-357.8911631193
 10
354.1171490061
 20
-352.2059656078
 10
349.1408833044
 20
-346.7713436425
 10
343.9598968825
 20
-341.5980871621
 10
338.5844761093
 20
-336.6964671884
 10
333.0252933852
 20
-332.0762154343
 10
327.2933859529
 20
-327.746504982
 10
321.400133984
 20
-323.7159320707
 10
315.3572379849
 20
-319.9924990299
 10
309.1766955661
 20
-316.5835983912
 10
302.8707776226
 20
-313.4959982113
 10
296.4520039707
 20
-310.7358286346
 10
289.9331184914
 20
-308.3085697222
 10
283.3270638283
 20
-306.2190405721
 10
276.6469556916
 20
-304.471389751
 10
269.9060568175
 20
-303.0690870578
 10
263.1177506368
 20
-302.0149166346
 10
256.2955147031
 20
-301.3109714394
 10
249.4528939343
 20
-300.9586490901
 10
242.6034737207
 20
-300.9586490901
 10
235.7608529519
 20
-301.3109714394
 10
228.9386170182
 20
-302.0149166346
 10
222.1503108376
 20
-303.0690870578
 10
215.4094119635
 20
-304.471389751
 10
208.7293038267
 20
-306.2190405721
 10
202.1232491636
 20
-308.3085697222
 10
195.6043636843
 20
-310.7358286346
 10
189.1855900324
 20
-313.4959982113
 10
182.8796720889
 20
-316.5835983912
 10
176.6991296701
 20
-319.9924990299
 10
170.656233671
 20
-323.7159320707
 10
164.7629817021
 20
-327.746504982
 10
159.0310742698
 20
-332.0762154343
 10
153.4718915457
 20
-336.6964671884
 10
148.0964707725
 20
-341.5980871621
 10
142.9154843506
 20
-346.7713436425
 10
137.9392186489
 20
-352.2059656078
 10
133.1775535824
 20
-357.8911631193
 10
128.6399429963
 20
-363.8156487433
 10
124.3353958964
 20
-369.9676599622
 10
120.2724585625
 20
-376.3349825271
 10
116.4591975807
 20
-382.9049747085
 10
112.9031838275
 20
-389.664592395
 10
109.6114774392
 20
-396.6004149914
 10
106.5906137941
 20
-403.698672064
 10
103.8465905374
 20
-410.9452706803
 10
101.3848556732
 20
-418.3258233897
 10
99.2102967482
 20
-425.8256767878
 10
97.3272311479
 20
-433.42994061
 10
95.7393975247
 20
-441.1235172944
 10
94.4499483753
 20
-448.8911319565
 10
93.4614437817
 20
-456.7173627165
 10
92.7758463282
 20
-464.5866713177
 10
92.3945172051
 20
-472.4834339761
 10
92.318213506
 20
-480.3919724006
 10
92.547086725
 20
-488.2965849202
 10
93.0806824553
 20
-496.1815776583
 10
93.9179412922
 20
-504.0312956917
 10
95.0572009356
 20
-511.830154132
 10
96.496199491
 20
-519.5626690675
 10
98.23207996
 20
-527.2134883056
 10
100.2613959125
 20
-534.767421853
 10
102.5801183296
 20
-542.2094720737
 10
105.1836436026
 20
-549.5248634659
 10
108.066802673
 20
-556.6990719972
 10
111.2238712954
 20
-563.7178539406
 10
114.6485814022
 20
-570.5672741543
 10
118.3341335486
 20
-577.2337337484
 10
122.2732104119
 20
-583.7039970845
 10
126.4579913196
 20
-589.9652180536
 10
130.8801677765
 20
-596.0049655811
 10
135.5309599608
 20
-601.8112483073
 10
140.4011341549
 20
-607.3725383953
 10
145.4810210788
 20
-612.6777944184
 10
150.7605350873
 20
-617.716483282
 10
156.229194194
 20
-622.4786011355
 10
161.8761408824
 20
-626.954693235
 10
167.6901636625
 20
-631.1358727137
 10
173.6597193304
 20
-635.0138382269
 10
179.7729558858
 20
-638.580890433
 10
186.0177360635
 20
-641.8299472801
 10
192.3816614303
 20
-644.7545580665
 10
198.8520970016
 20
-647.3489162482
 10
205.4161963264
 20
-649.6078709672
 10
212.0609269932
 20
-651.526937278
 10
218.7730965043
 20
-653.102305052
 10
225.5393784685
 20
-654.3308465425
 10
232.3463390591
 20
-655.2101225939
 10
239.1804636861
 20
-655.7383874851
 10
246.0281838275
 20
-655.914592395
  0
ARC
  5
B1
330
1F
100
AcDbEntity
  8
0
  6
Continuous
 62
     7
370
    25
100
AcDbCircle
 10
118.7523174227
 20
-478.414592395
 30
0.0
 40
177.5
100
AcDbArc
 50
90.0
 51
180.0
  0
ARC
  5
B2
330
1F
100
AcDbEntity
  8
0
  6
Continuous
 62
     7
370
    25
100
AcDbCircle
 10
118.7523174227
 20
-478.414592395
 30
0.0
 40
177.5
100
AcDbArc
 50
180.0
 51
270.0
  0
LWPOLYLINE
  5
B3
330
1F
100
AcDbEntity
  8
0
  6
Continuous
 62
     7
370
    25
100
AcDbPolyline
 90
      129
 70
   128
 43
0.0
 10
246.0281838275
 20
-623.714592395
 10
239.8538270633
 20
-623.5395721816
 10
233.6943448654
 20
-623.0149331805
 10
227.5645759658
 20
-622.1419392929
 10
221.4792875148
 20
-620.9226936376
 10
215.4531395052
 20
-619.3601334842
 10
209.5006494555
 20
-617.4580231769
 10
203.6361574355
 20
-615.2209450661
 10
197.8737915201
 20
-612.6542884689
 10
192.2274337537
 20
-609.7642366858
 10
186.7106867066
 20
-606.5577521048
 10
181.3368407057
 20
-603.042559428
 10
176.1188418166
 20
-599.2271270626
 10
171.0692606558
 20
-595.1206467191
 10
166.2002621065
 20
-590.7330112686
 10
161.5235760127
 20
-586.0747909091
 10
157.0504689209
 20
-581.1572077014
 10
152.7917169378
 20
-575.9921085343
 10
148.7575797701
 20
-570.591936584
 10
144.9577760074
 20
-564.9697013378
 10
141.4014597098
 20
-559.1389472528
 10
138.0971983549
 20
-553.1137211263
 10
135.0529521976
 20
-546.9085382558
 10
132.2760550936
 20
-540.5383474704
 10
129.7731968312
 20
-534.0184951177
 10
127.5504070152
 20
-527.3646880929
 10
125.613040541
 20
-520.5929560001
 10
123.9657646941
 20
-513.7196125349
 10
122.6125479063
 20
-506.7612161839
 10
121.5566501954
 20
-499.7345303334
 10
120.8006153114
 20
-492.6564828849
 10
120.3462646086
 20
-485.5441254748
 10
120.1946926576
 20
-478.414592395
 10
120.3462646086
 20
-471.2850593152
 10
120.8006153114
 20
-464.1727019051
 10
121.5566501954
 20
-457.0946544566
 10
122.6125479063
 20
-450.0679686061
 10
123.9657646941
 20
-443.1095722551
 10
125.613040541
 20
-436.2362287899
 10
127.5504070152
 20
-429.4644966971
 10
129.7731968312
 20
-422.8106896724
 10
132.2760550936
 20
-416.2908373196
 10
135.0529521976
 20
-409.9206465342
 10
138.0971983549
 20
-403.7154636637
 10
141.4014597098
 20
-397.6902375373
 10
144.9577760074
 20
-391.8594834523
 10
148.7575797701
 20
-386.237248206
 10
152.7917169378
 20
-380.8370762557
 10
157.0504689209
 20
-375.6719770886
 10
161.5235760127
 20
-370.7543938809
 10
166.2002621065
 20
-366.0961735214
 10
171.0692606558
 20
-361.7085380709
 10
176.1188418166
 20
-357.6020577274
 10
181.3368407057
 20
-353.786625362
 10
186.7106867066
 20
-350.2714326852
 10
192.2274337537
 20
-347.0649481042
 10
197.8737915201
 20
-344.1748963211
 10
203.6361574355
 20
-341.6082397239
 10
209.5006494555
 20
-339.3711616131
 10
215.4531395052
 20
-337.4690513058
 10
221.4792875148
 20
-335.9064911524
 10
227.5645759658
 20
-334.6872454971
 10
233.6943448654
 20
-333.8142516095
 10
239.8538270633
 20
-333.2896126084
 10
246.0281838275
 20
-333.114592395
 10
252.2025405917
 20
-333.2896126084
 10
258.3620227897
 20
-333.8142516095
 10
264.4917916892
 20
-334.6872454971
 10
270.5770801403
 20
-335.9064911524
 10
276.6032281498
 20
-337.4690513058
 10
282.5557181996
 20
-339.3711616131
 10
288.4202102196
 20
-341.6082397239
 10
294.1825761349
 20
-344.1748963211
 10
299.8289339013
 20
-347.0649481042
 10
305.3456809484
 20
-350.2714326852
 10
310.7195269494
 20
-353.786625362
 10
315.9375258384
 20
-357.6020577274
 10
320.9871069993
 20
-361.7085380709
 10
325.8561055485
 20
-366.0961735214
 10
330.5327916423
 20
-370.7543938809
 10
335.0058987341
 20
-375.6719770886
 10
339.2646507172
 20
-380.8370762557
 10
343.298787885
 20
-386.237248206
 10
347.0985916477
 20
-391.8594834523
 10
350.6549079452
 20
-397.6902375373
 10
353.9591693001
 20
-403.7154636637
 10
357.0034154574
 20
-409.9206465342
 10
359.7803125614
 20
-416.2908373196
 10
362.2831708238
 20
-422.8106896724
 10
364.5059606398
 20
-429.4644966971
 10
366.443327114
 20
-436.2362287899
 10
368.0906029609
 20
-443.1095722551
 10
369.4438197487
 20
-450.0679686061
 10
370.4997174596
 20
-457.0946544566
 10
371.2557523436
 20
-464.1727019051
 10
371.7101030464
 20
-471.2850593152
 10
371.8616749974
 20
-478.414592395
 10
371.7101030464
 20
-485.5441254748
 10
371.2557523436
 20
-492.6564828849
 10
370.4997174596
 20
-499.7345303334
 10
369.4438197487
 20
-506.7612161839
 10
368.0906029609
 20
-513.7196125349
 10
366.443327114
 20
-520.5929560001
 10
364.5059606398
 20
-527.3646880929
 10
362.2831708238
 20
-534.0184951177
 10
359.7803125614
 20
-540.5383474704
 10
357.0034154574
 20
-546.9085382558
 10
353.9591693001
 20
-553.1137211263
 10
350.6549079452
 20
-559.1389472528
 10
347.0985916477
 20
-564.9697013378
 10
343.298787885
 20
-570.591936584
 10
339.2646507172
 20
-575.9921085343
 10
335.0058987341
 20
-581.1572077014
 10
330.5327916423
 20
-586.0747909091
 10
325.8561055485
 20
-590.7330112686
 10
320.9871069993
 20
-595.1206467191
 10
315.9375258384
 20
-599.2271270626
 10
310.7195269494
 20
-603.042559428
 10
305.3456809484
 20
-606.5577521048
 10
299.8289339013
 20
-609.7642366858
 10
294.1825761349
 20
-612.6542884689
 10
288.4202102196
 20
-615.2209450661
 10
282.5557181996
 20
-617.4580231769
 10
276.6032281498
 20
-619.3601334842
 10
270.5770801403
 20
-620.9226936376
 10
264.4917916892
 20
-622.1419392929
 10
258.3620227897
 20
-623.0149331805
 10
252.2025405917
 20
-623.5395721816
 10
246.0281838275
 20
-623.714592395
  0
ARC
  5
B4
330
1F
100
AcDbEntity
  8
0
  6
Continuous
 62
     7
370
    25
100
AcDbCircle
 10
118.7523174227
 20
-478.414592395
 30
0.0
 40
145.3
100
AcDbArc
 50
297.9967457236
 51
62.0032542764
  0
LINE
  5
B5
330
1F
100
AcDbEntity
  8
0
  6
Continuous
 62
     7
370
    25
100
AcDbLine
 10
589.2555286589
 20
-512.5494706614
 30
0.0
 11
589.2555286589
 21
-747.8621823168
 31
0.0
  0
LINE
  5
B6
330
1F
100
AcDbEntity
  8
0
  6
Continuous
 62
     7
370
    25
100
AcDbLine
 10
944.2555286589
 20
-747.8621823168
 30
0.0
 11
944.2555286589
 21
-567.4711368216
 31
0.0
  0
LINE
  5
B7
330
1F
100
AcDbEntity
  8
0
  6
Continuous
 62
     7
370
    25
100
AcDbLine
 10
691.2720461211
 20
-243.8460057345
 30
0.0
 11
591.3413679699
 21
-501.4069414111
 31
0.0
  0
LINE
  5
B8
330
1F
100
AcDbEntity
  8
0
  6
Continuous
 62
     7
370
    25
100
AcDbLine
 10
944.2555286589
 20
-573.2376320597
 30
0.0
 11
1022.2342676292
 21
-372.2555378354
 31
0.0
  0
LWPOLYLINE
  5
B9
330
1F
100
AcDbEntity
  8
0
  6
Continuous
 62
     7
370
    25
100
AcDbPolyline
 90
      142
 70
   128
 43
0.0
 10
641.2440749983
 20
-675.4059623925
 10
646.9598107677
 20
-672.2501934851
 10
652.913389846
 20
-669.2445451826
 10
659.0929919533
 20
-666.3949849214
 10
665.4863480615
 20
-663.7071702397
 10
672.0807647538
 20
-661.1864375447
 10
678.8631494263
 20
-658.8377915179
 10
685.8200362821
 20
-656.6658951785
 10
692.9376130663
 20
-654.6750606257
 10
700.201748489
 20
-652.8692404772
 10
707.5980202817
 20
-651.2520200217
 10
715.1117438314
 20
-649.8266101008
 10
722.7280013355
 20
-648.595840734
 10
730.4316714197
 20
-647.5621554998
 10
738.2074591601
 20
-646.7276066847
 10
746.0399264501
 20
-646.093851208
 10
753.9135226506
 20
-645.6621473327
 10
761.8126154654
 20
-645.4333521666
 10
769.7215219768
 20
-645.4079199616
 10
777.6245397831
 20
-645.5859012109
 10
785.5059781738
 20
-645.9669425492
 10
793.3501892826
 20
-646.5502874542
 10
801.1415991545
 20
-647.3347777485
 10
808.8647386663
 20
-648.3188558994
 10
816.5042742395
 20
-649.5005681106
 10
824.0450382833
 20
-650.8775682022
 10
831.4720593087
 20
-652.4471222677
 10
838.7705916529
 20
-654.2061141029
 10
845.9261447556
 20
-656.1510513923
 10
852.9245119284
 20
-658.278072643
 10
859.7517985612
 20
-660.5829548511
 10
866.3944497081
 20
-663.0611218864
 10
872.8392770004
 20
-665.7076535777
 10
879.0734848299
 20
-668.5172954811
 10
885.084695754
 20
-671.4844693129
 10
890.86097507
 20
-674.603284024
 10
896.3908545098
 20
-677.8675474965
 10
901.6633550098
 20
-681.2707788374
 10
906.6680085083
 20
-684.8062212459
 10
911.3948787289
 20
-688.4668554284
 10
915.8345809084
 20
-692.2454135345
 10
919.9783004291
 20
-696.134393587
 10
923.8178103194
 20
-700.1260743758
 10
927.3454875878
 20
-704.2125307882
 10
930.5543283577
 20
-708.3856495433
 10
933.4379617727
 20
-712.6371453002
 10
935.9906626457
 20
-716.9585771075
 10
938.2073628253
 20
-721.3413651623
 10
940.0836612584
 20
-725.7768078447
 10
941.6158327283
 20
-730.2560989938
 10
942.8008352503
 20
-734.7703453916
 10
943.6363161116
 20
-739.3105844198
 10
944.1206165423
 20
-743.8678018541
 10
944.2527750087
 20
-748.4329497611
 10
944.0325291224
 20
-752.9969644621
 10
943.4603161612
 20
-757.5507845284
 10
942.537272201
 20
-762.0853687719
 10
941.2652298601
 20
-766.5917141953
 10
939.6467146609
 20
-771.0608738668
 10
937.6849400154
 20
-775.4839746835
 10
935.3838008457
 20
-779.8522349884
 10
932.7478658505
 20
-784.1569820048
 10
929.7823684348
 20
-788.389669056
 10
926.4931963192
 20
-792.5418925337
 10
922.8868798505
 20
-796.6054085825
 10
918.9705790362
 20
-800.5721494675
 10
914.752069329
 20
-804.4342395917
 10
910.2397261896
 20
-808.1840111328
 10
905.4425084575
 20
-811.8140192664
 10
900.3699405645
 20
-815.3170569475
 10
895.0320936246
 20
-818.6861692188
 10
889.4395654388
 20
-821.91466702
 10
883.6034594542
 20
-824.9961404674
 10
877.5353627189
 20
-827.9244715807
 10
871.2473228774
 20
-830.6938464297
 10
864.7518242506
 20
-833.2987666768
 10
858.0617630499
 20
-835.734060494
 10
851.1904217726
 20
-837.9948928309
 10
844.1514428306
 20
-840.0767750142
 10
836.9588014652
 20
-841.9755736595
 10
829.6267779999
 20
-843.6875188778
 10
822.1699294887
 20
-845.2092117604
 10
814.6030608141
 20
-846.5376311268
 10
806.9411952933
 20
-847.6701395236
 10
799.1995448512
 20
-848.6044884599
 10
791.3934798181
 20
-849.3388228725
 10
783.5384984136
 20
-849.8716848085
 10
775.6501959762
 20
-850.2020163197
 10
767.7442340001
 20
-850.3291615635
 10
759.836309041
 20
-850.2528681048
 10
751.9421215521
 20
-849.9732874172
 10
744.0773447118
 20
-849.4909745823
 10
736.2575933065
 20
-848.8068871875
 10
728.4983927288
 20
-847.9223834252
 10
720.8151481532
 20
-846.8392193955
 10
713.2231139508
 20
-845.5595456204
 10
705.7373634025
 20
-844.0859027739
 10
698.3727587732
 20
-842.4212166372
 10
691.1439218037
 20
-840.5687922907
 10
684.0652046807
 20
-838.5323075514
 10
677.1506615418
 20
-836.3158056713
 10
670.4140205723
 20
-833.9236873097
 10
663.8686567493
 20
-831.3607017962
 10
657.5275652869
 20
-828.6319377012
 10
651.4033358351
 20
-825.7428127333
 10
645.5081274846
 20
-822.6990629827
 10
639.853644626
 20
-819.5067315327
 10
634.4511137115
 20
-816.1721564621
 10
629.3112609662
 20
-812.7019582608
 10
624.444291092
 20
-809.1030266862
 10
619.859867007
 20
-805.3825070839
 10
615.5670906609
 20
-801.5477862011
 10
611.5744849638
 20
-797.6064775211
 10
607.8899768648
 20
-793.5664061476
 10
604.5208816135
 20
-789.4355932682
 10
601.4738882367
 20
-785.2222402296
 10
598.7550462578
 20
-780.9347122543
 10
596.3697536859
 20
-776.5815218321
 10
594.3227462985
 20
-772.1713118196
 10
592.6180882394
 20
-767.7128382807
 10
591.2591639493
 20
-763.2149531019
 10
590.2486714466
 20
-758.6865864177
 10
589.5886169706
 20
-754.1367288812
 10
589.2803109985
 20
-749.5744138133
 10
589.3243656431
 20
-745.0086992682
 10
589.7206934381
 20
-740.4486500496
 10
590.4685075113
 20
-735.9033197131
 10
591.566323147
 20
-731.3817325913
 10
593.0119607341
 20
-726.892865877
 10
594.8025500928
 20
-722.4456317994
 10
596.9345361737
 20
-718.0488599302
 10
599.4036861158
 20
-713.711279653
 10
602.2050976504
 20
-709.4415028318
 10
605.3332088343
 20
-705.2480067134
 10
608.7818090923
 20
-701.139117096
 10
612.5440515477
 20
-697.1229917998
 10
616.6124666164
 20
-693.2076044697
 10
620.9789768369
 20
-689.4007287449
 10
625.6349129074
 20
-685.7099228246
 10
630.5710308976
 20
-682.1425144625
 10
635.7775306024
 20
-678.7055864176
 10
641.2440749983
 20
-675.4059623925
  0
LWPOLYLINE
  5
BA
330
1F
100
AcDbEntity
  8
0
  6
Continuous
 62
     7
370
    25
100
AcDbPolyline
 90
      129
 70
   128
 43
0.0
 10
664.0129133525
 20
-688.5501329928
 10
659.0953301449
 20
-691.5318812737
 10
654.4371097853
 20
-694.6493341838
 10
650.0494743348
 20
-697.8949815059
 10
645.9429939914
 20
-701.2610041913
 10
642.1275616259
 20
-704.7392931967
 10
638.6123689491
 20
-708.3214690191
 10
635.4058843681
 20
-711.9989018831
 10
632.5158325851
 20
-715.762732531
 10
629.9491759879
 20
-719.6038935649
 10
627.7120978771
 20
-723.5131312917
 10
625.8099875698
 20
-727.481028015
 10
624.2474274164
 20
-731.4980247243
 10
623.0281817611
 20
-735.5544441225
 10
622.1551878735
 20
-739.6405139401
 10
621.6305488723
 20
-743.7463904769
 10
621.4555286589
 20
-747.8621823168
 10
621.6305488723
 20
-751.9779741566
 10
622.1551878735
 20
-756.0838506934
 10
623.0281817611
 20
-760.169920511
 10
624.2474274164
 20
-764.2263399092
 10
625.8099875698
 20
-768.2433366185
 10
627.7120978771
 20
-772.2112333418
 10
629.9491759879
 20
-776.1204710686
 10
632.5158325851
 20
-779.9616321025
 10
635.4058843681
 20
-783.7254627504
 10
638.6123689491
 20
-787.4028956145
 10
642.1275616259
 20
-790.9850714368
 10
645.9429939914
 20
-794.4633604422
 10
650.0494743348
 20
-797.8293831276
 10
654.4371097853
 20
-801.0750304497
 10
659.0953301449
 20
-804.1924833598
 10
664.0129133525
 20
-807.1742316407
 10
669.1780125197
 20
-810.0130919996
 10
674.57818447
 20
-812.7022253734
 10
680.2004197162
 20
-815.2351534041
 10
686.0311738012
 20
-817.6057740462
 10
692.0563999277
 20
-819.8083762671
 10
698.2615827981
 20
-821.837653805
 10
704.6317735835
 20
-823.6887179527
 10
711.1516259363
 20
-825.3571093343
 10
717.8054329611
 20
-826.838808649
 10
724.5771650539
 20
-828.1302463534
 10
731.450508519
 20
-829.2283112608
 10
738.40890487
 20
-830.1303580367
 10
745.4355907206
 20
-830.8342135716
 10
752.5136381691
 20
-831.3381822156
 10
759.6259955792
 20
-831.6410498642
 10
766.7555286589
 20
-831.7420868828
 10
773.8850617387
 20
-831.6410498642
 10
780.9974191488
 20
-831.3381822156
 10
788.0754665973
 20
-830.8342135716
 10
795.1021524479
 20
-830.1303580367
 10
802.0605487989
 20
-829.2283112608
 10
808.933892264
 20
-828.1302463534
 10
815.7056243568
 20
-826.838808649
 10
822.3594313816
 20
-825.3571093343
 10
828.8792837344
 20
-823.6887179527
 10
835.2494745198
 20
-821.837653805
 10
841.4546573902
 20
-819.8083762671
 10
847.4798835167
 20
-817.6057740462
 10
853.3106376017
 20
-815.2351534041
 10
858.9328728479
 20
-812.7022253734
 10
864.3330447982
 20
-810.0130919996
 10
869.4981439654
 20
-807.1742316407
 10
874.415727173
 20
-804.1924833598
 10
879.0739475326
 20
-801.0750304497
 10
883.4615829831
 20
-797.8293831276
 10
887.5680633265
 20
-794.4633604422
 10
891.383495692
 20
-790.9850714368
 10
894.8986883688
 20
-787.4028956145
 10
898.1051729498
 20
-783.7254627504
 10
900.9952247328
 20
-779.9616321025
 10
903.56188133
 20
-776.1204710686
 10
905.7989594408
 20
-772.2112333418
 10
907.7010697481
 20
-768.2433366185
 10
909.2636299015
 20
-764.2263399092
 10
910.4828755568
 20
-760.169920511
 10
911.3558694444
 20
-756.0838506934
 10
911.8805084456
 20
-751.9779741566
 10
912.0555286589
 20
-747.8621823168
 10
911.8805084456
 20
-743.7463904769
 10
911.3558694444
 20
-739.6405139401
 10
910.4828755568
 20
-735.5544441225
 10
909.2636299015
 20
-731.4980247243
 10
907.7010697481
 20
-727.481028015
 10
905.7989594408
 20
-723.5131312917
 10
903.56188133
 20
-719.6038935649
 10
900.9952247328
 20
-715.762732531
 10
898.1051729498
 20
-711.9989018831
 10
894.8986883688
 20
-708.321469019
 10
891.383495692
 20
-704.7392931967
 10
887.5680633265
 20
-701.2610041913
 10
883.4615829831
 20
-697.8949815059
 10
879.0739475325
 20
-694.6493341838
 10
874.415727173
 20
-691.5318812737
 10
869.4981439653
 20
-688.5501329928
 10
864.3330447982
 20
-685.7112726339
 10
858.9328728479
 20
-683.0221392601
 10
853.3106376017
 20
-680.4892112294
 10
847.4798835167
 20
-678.1185905873
 10
841.4546573902
 20
-675.9159883664
 10
835.2494745198
 20
-673.8867108285
 10
828.8792837344
 20
-672.0356466808
 10
822.3594313816
 20
-670.3672552992
 10
815.7056243568
 20
-668.8855559845
 10
808.933892264
 20
-667.5941182802
 10
802.0605487989
 20
-666.4960533727
 10
795.1021524479
 20
-665.5940065968
 10
788.0754665973
 20
-664.8901510619
 10
780.9974191488
 20
-664.3861824179
 10
773.8850617387
 20
-664.0833147693
 10
766.7555286589
 20
-663.9822777507
 10
759.6259955792
 20
-664.0833147693
 10
752.5136381691
 20
-664.3861824179
 10
745.4355907206
 20
-664.8901510619
 10
738.40890487
 20
-665.5940065968
 10
731.450508519
 20
-666.4960533727
 10
724.5771650539
 20
-667.5941182802
 10
717.8054329611
 20
-668.8855559845
 10
711.1516259363
 20
-670.3672552992
 10
704.6317735835
 20
-672.0356466808
 10
698.2615827981
 20
-673.8867108285
 10
692.0563999277
 20
-675.9159883664
 10
686.0311738012
 20
-678.1185905873
 10
680.2004197162
 20
-680.4892112294
 10
674.57818447
 20
-683.0221392601
 10
669.1780125197
 20
-685.7112726339
 10
664.0129133525
 20
-688.5501329928
  0
ELLIPSE
  5
BB
330
1F
100
AcDbEntity
  8
0
  6
Continuous
 62
     7
370
    25
100
AcDbEllipse
 10
766.7555286589
 20
-540.0103037415
 30
0.0
 11
176.9777719408647
 21
-33.12956920169222
 31
0.0
210
0.0
220
0.0
230
1.0
 40
0.4106849769
 41
0.0767277489784149
 42
3.218320402568243
  0
LWPOLYLINE
  5
BC
330
1F
100
AcDbEntity
  8
0
  6
Continuous
 62
     7
370
    25
100
AcDbPolyline
 90
       58
 70
   128
 43
0.0
 10
731.2417032145
 20
-235.5945518607
 10
736.2083682489
 20
-236.0994333844
 10
741.4143638029
 20
-236.7471676305
 10
746.8493538543
 20
-237.5364685824
 10
752.5025477335
 20
-238.4657691561
 10
758.3627215471
 20
-239.5332243116
 10
764.4182404627
 20
-240.7367147152
 10
770.6570818079
 20
-242.0738509483
 10
777.0668589407
 20
-243.5419782505
 10
783.6348458419
 20
-245.1381817911
 10
790.3480023816
 20
-246.8592924557
 10
797.1930002087
 20
-248.7018931384
 10
804.1562492137
 20
-250.6623255259
 10
811.2239245103
 20
-252.7366973615
 10
818.3819938834
 20
-254.9208901716
 10
825.6162456488
 20
-257.2105674438
 10
832.9123168692
 20
-259.6011832357
 10
840.2557218707
 20
-262.087991201
 10
847.6318810023
 20
-264.6660540126
 10
855.0261495829
 20
-267.3302531654
 10
862.4238469765
 20
-270.0752991387
 10
869.8102857399
 20
-272.8957418978
 10
877.1708007825
 20
-275.7859817146
 10
884.4907784831
 20
-278.7402802855
 10
891.7556857036
 20
-281.7527721241
 10
898.951098643
 20
-284.8174762069
 10
906.062731475
 20
-287.9283078474
 10
913.0764647111
 20
-291.0790907775
 10
919.9783732329
 20
-294.2635694092
 10
926.7547539401
 20
-297.4754212551
 10
933.3921529559
 20
-300.7082694805
 10
939.8773923391
 20
-303.9556955646
 10
946.1975962471
 20
-307.2112520434
 10
952.3402165001
 20
-310.468475311
 10
958.2930574941
 20
-313.7208984521
 10
964.0443004145
 20
-316.9620640815
 10
969.5825267007
 20
-320.1855371649
 10
974.8967407171
 20
-323.3849177949
 10
979.9763915837
 20
-326.5538538974
 10
984.8113941239
 20
-329.6860538431
 10
989.3921488876
 20
-332.7752989389
 10
993.7095612103
 20
-335.8154557746
 10
997.7550592695
 20
-338.8004884004
 10
1001.5206111033
 20
-341.7244703101
 10
1004.998740557
 20
-344.5815962083
 10
1008.1825421266
 20
-347.3661935362
 10
1011.0656946687
 20
-350.0727337333
 10
1013.6424739509
 20
-352.6958432148
 10
1015.9077640164
 20
-355.2303140394
 10
1017.8570673415
 20
-357.6711142501
 10
1019.4865137648
 20
-360.0133978639
 10
1020.7928681714
 20
-362.2525144935
 10
1021.7735369154
 20
-364.3840185801
 10
1022.4265729698
 20
-366.4036782196
 10
1022.7506797921
 20
-368.3074835648
 10
1022.745213898
 20
-370.0916547864
 10
1022.4101861397
 20
-371.7526495776
 10
1022.2342676292
 20
-372.2555378354
  0
LWPOLYLINE
  5
BD
330
1F
100
AcDbEntity
  8
0
  6
Continuous
 62
     7
370
    25
100
AcDbPolyline
 90
       16
 70
   128
 43
0.0
 10
691.2720461211
 20
-243.8460057345
 10
691.3870448562
 20
-243.5656280408
 10
692.2149640759
 20
-242.0955029518
 10
693.369558647
 20
-240.7563259438
 10
694.8485362288
 20
-239.5507558291
 10
696.6489604483
 20
-238.4811861554
 10
698.7672567299
 20
-237.5497404542
 10
701.1992193924
 20
-236.7582680249
 10
703.940019999
 20
-236.1083402627
 10
706.9842169438
 20
-235.6012475389
 10
710.3257662555
 20
-235.2379966393
 10
713.9580335974
 20
-235.0193087648
 10
717.8738074388
 20
-234.9456181001
 10
722.0653133732
 20
-235.0170709511
 10
726.5242295535
 20
-235.2335254547
 10
731.2417032145
 20
-235.5945518607
  0
ENDSEC
  0
SECTION
  2
OBJECTS
  0
DICTIONARY
  5
C
330
0
100
AcDbDictionary
281
     1
  3
ACAD_GROUP
350
D
  3
ACAD_LAYOUT
350
1A
  3
ACAD_MLINESTYLE
350
17
  3
ACAD_PLOTSETTINGS
350
19
  3
ACAD_PLOTSTYLENAME
350
E
  3
ACAD_SCALELIST
350
47
  3
DWGPROPS
350
BE
  0
DICTIONARY
  5
D
102
{ACAD_REACTORS
330
C
102
}
330
C
100
AcDbDictionary
281
     1
  0
DICTIONARY
  5
1A
102
{ACAD_REACTORS
330
C
102
}
330
C
100
AcDbDictionary
281
     1
  3
Layout1
350
1E
  3
Layout2
350
26
  3
Model
350
22
  0
DICTIONARY
  5
17
102
{ACAD_REACTORS
330
C
102
}
330
C
100
AcDbDictionary
281
     1
  3
Standard
350
18
  0
DICTIONARY
  5
19
102
{ACAD_REACTORS
330
C
102
}
330
C
100
AcDbDictionary
281
     1
  0
ACDBDICTIONARYWDFLT
  5
E
102
{ACAD_REACTORS
330
C
102
}
330
C
100
AcDbDictionary
281
     1
  3
Normal
350
F
100
AcDbDictionaryWithDefault
340
F
  0
DICTIONARY
  5
47
102
{ACAD_REACTORS
330
C
102
}
330
C
100
AcDbDictionary
281
     1
  3
A0
350
48
  3
A1
350
49
  3
A2
350
4A
  3
A3
350
4B
  3
A4
350
4C
  3
A5
350
4D
  3
A6
350
4E
  3
A7
350
4F
  3
A8
350
50
  3
A9
350
51
  3
B0
350
52
  3
B1
350
53
  3
B2
350
54
  3
B3
350
55
  3
B4
350
56
  3
B5
350
57
  3
B6
350
58
  3
B7
350
59
  3
B8
350
5A
  3
B9
350
5B
  3
C0
350
5C
  3
C1
350
5D
  3
C2
350
5E
  3
C3
350
5F
  3
C4
350
60
  3
C5
350
61
  3
C6
350
62
  3
C7
350
63
  3
C8
350
64
  3
C9
350
65
  3
D0
350
66
  3
D1
350
67
  3
D2
350
68
  0
XRECORD
  5
BE
102
{ACAD_REACTORS
330
C
102
}
330
C
100
AcDbXrecord
280
     1
  1
DWGPROPS COOKIE
  2

  3

  4

  6

  7

  8
b.kav
  9

300
=
301
=
302
=
303
=
304
=
305
=
306
=
307
=
308
=
309
=
 40
0.0
 41
2460682.394626366
 42
2460682.394626551
  1

 90
        0
  0
LAYOUT
  5
1E
102
{ACAD_REACTORS
330
1A
102
}
330
1A
100
AcDbPlotSettings
  1

  2
none_device
  4

  6

 40
0.0
 41
0.0
 42
0.0
 43
0.0
 44
0.0
 45
0.0
 46
0.0
 47
0.0
 48
0.0
 49
0.0
140
0.0
141
0.0
142
1.0
143
1.0
 70
   688
 72
     1
 73
     0
 74
     5
  7

 75
    16
147
1.0
148
0.0
149
0.0
100
AcDbLayout
  1
Layout1
 70
     1
 71
     1
 10
0.0
 20
0.0
 11
420.0
 21
297.0
 12
0.0
 22
0.0
 32
0.0
 14
1.0000000000E+20
 24
1.0000000000E+20
 34
1.0000000000E+20
 15
-1.0000000000E+20
 25
-1.0000000000E+20
 35
-1.0000000000E+20
146
0.0
 13
0.0
 23
0.0
 33
0.0
 16
1.0
 26
0.0
 36
0.0
 17
0.0
 27
1.0
 37
0.0
 76
     0
330
1B
  0
LAYOUT
  5
26
102
{ACAD_REACTORS
330
1A
102
}
330
1A
100
AcDbPlotSettings
  1

  2
none_device
  4

  6

 40
0.0
 41
0.0
 42
0.0
 43
0.0
 44
0.0
 45
0.0
 46
0.0
 47
0.0
 48
0.0
 49
0.0
140
0.0
141
0.0
142
1.0
143
1.0
 70
   688
 72
     1
 73
     0
 74
     5
  7

 75
    16
147
1.0
148
0.0
149
0.0
100
AcDbLayout
  1
Layout2
 70
     1
 71
     2
 10
0.0
 20
0.0
 11
0.0
 21
0.0
 12
0.0
 22
0.0
 32
0.0
 14
0.0
 24
0.0
 34
0.0
 15
0.0
 25
0.0
 35
0.0
146
0.0
 13
0.0
 23
0.0
 33
0.0
 16
1.0
 26
0.0
 36
0.0
 17
0.0
 27
1.0
 37
0.0
 76
     0
330
23
  0
LAYOUT
  5
22
102
{ACAD_REACTORS
330
1A
102
}
330
1A
100
AcDbPlotSettings
  1

  2
none_device
  4
Letter_(8.50_x_11.00_Inches)
  6

 40
6.35
 41
6.35
 42
6.35000508
 43
6.35000508
 44
215.9
 45
279.4
 46
0.0
 47
0.0
 48
0.0
 49
0.0
140
0.0
141
0.0
142
1.0
143
1.0
 70
  1712
 72
     1
 73
     0
 74
     0
  7

 75
     0
147
1.0
148
0.0
149
0.0
100
AcDbLayout
  1
Model
 70
     1
 71
     0
 10
0.0
 20
0.0
 11
279.4
 21
215.9
 12
0.0
 22
0.0
 32
0.0
 14
0.0
 24
0.0
 34
0.0
 15
279.4
 25
215.9
 35
0.0
146
0.0
 13
0.0
 23
0.0
 33
0.0
 16
1.0
 26
0.0
 36
0.0
 17
0.0
 27
1.0
 37
0.0
 76
     0
330
1F
331
29
  0
MLINESTYLE
  5
18
102
{ACAD_REACTORS
330
17
102
}
330
17
100
AcDbMlineStyle
  2
Standard
 70
     0
  3

 62
   256
 51
90.0
 52
90.0
 71
     2
 49
0.5
 62
   256
  6
BYLAYER
 49
-0.5
 62
   256
  6
BYLAYER
  0
ACDBPLACEHOLDER
  5
F
102
{ACAD_REACTORS
330
E
102
}
330
E
  0
SCALE
  5
48
102
{ACAD_REACTORS
330
47
102
}
330
47
100
AcDbScale
 70
     0
300
1:1
140
1.0
141
1.0
290
     1
  0
SCALE
  5
49
102
{ACAD_REACTORS
330
47
102
}
330
47
100
AcDbScale
 70
     0
300
1:2
140
1.0
141
2.0
290
     0
  0
SCALE
  5
4A
102
{ACAD_REACTORS
330
47
102
}
330
47
100
AcDbScale
 70
     0
300
1:4
140
1.0
141
4.0
290
     0
  0
SCALE
  5
4B
102
{ACAD_REACTORS
330
47
102
}
330
47
100
AcDbScale
 70
     0
300
1:5
140
1.0
141
5.0
290
     0
  0
SCALE
  5
4C
102
{ACAD_REACTORS
330
47
102
}
330
47
100
AcDbScale
 70
     0
300
1:8
140
1.0
141
8.0
290
     0
  0
SCALE
  5
4D
102
{ACAD_REACTORS
330
47
102
}
330
47
100
AcDbScale
 70
     0
300
1:10
140
1.0
141
10.0
290
     0
  0
SCALE
  5
4E
102
{ACAD_REACTORS
330
47
102
}
330
47
100
AcDbScale
 70
     0
300
1:16
140
1.0
141
16.0
290
     0
  0
SCALE
  5
4F
102
{ACAD_REACTORS
330
47
102
}
330
47
100
AcDbScale
 70
     0
300
1:20
140
1.0
141
20.0
290
     0
  0
SCALE
  5
50
102
{ACAD_REACTORS
330
47
102
}
330
47
100
AcDbScale
 70
     0
300
1:30
140
1.0
141
30.0
290
     0
  0
SCALE
  5
51
102
{ACAD_REACTORS
330
47
102
}
330
47
100
AcDbScale
 70
     0
300
1:40
140
1.0
141
40.0
290
     0
  0
SCALE
  5
52
102
{ACAD_REACTORS
330
47
102
}
330
47
100
AcDbScale
 70
     0
300
1:50
140
1.0
141
50.0
290
     0
  0
SCALE
  5
53
102
{ACAD_REACTORS
330
47
102
}
330
47
100
AcDbScale
 70
     0
300
1:100
140
1.0
141
100.0
290
     0
  0
SCALE
  5
54
102
{ACAD_REACTORS
330
47
102
}
330
47
100
AcDbScale
 70
     0
300
2:1
140
2.0
141
1.0
290
     0
  0
SCALE
  5
55
102
{ACAD_REACTORS
330
47
102
}
330
47
100
AcDbScale
 70
     0
300
4:1
140
4.0
141
1.0
290
     0
  0
SCALE
  5
56
102
{ACAD_REACTORS
330
47
102
}
330
47
100
AcDbScale
 70
     0
300
8:1
140
8.0
141
1.0
290
     0
  0
SCALE
  5
57
102
{ACAD_REACTORS
330
47
102
}
330
47
100
AcDbScale
 70
     0
300
10:1
140
10.0
141
1.0
290
     0
  0
SCALE
  5
58
102
{ACAD_REACTORS
330
47
102
}
330
47
100
AcDbScale
 70
     0
300
100:1
140
100.0
141
1.0
290
     0
  0
SCALE
  5
59
102
{ACAD_REACTORS
330
47
102
}
330
47
100
AcDbScale
 70
     0
300
1/128" = 1'-0"
140
0.0078125
141
12.0
290
     0
  0
SCALE
  5
5A
102
{ACAD_REACTORS
330
47
102
}
330
47
100
AcDbScale
 70
     0
300
1/64" = 1'-0"
140
0.015625
141
12.0
290
     0
  0
SCALE
  5
5B
102
{ACAD_REACTORS
330
47
102
}
330
47
100
AcDbScale
 70
     0
300
1/32" = 1'-0"
140
0.03125
141
12.0
290
     0
  0
SCALE
  5
5C
102
{ACAD_REACTORS
330
47
102
}
330
47
100
AcDbScale
 70
     0
300
1/16" = 1'-0"
140
0.0625
141
12.0
290
     0
  0
SCALE
  5
5D
102
{ACAD_REACTORS
330
47
102
}
330
47
100
AcDbScale
 70
     0
300
3/32" = 1'-0"
140
0.09375
141
12.0
290
     0
  0
SCALE
  5
5E
102
{ACAD_REACTORS
330
47
102
}
330
47
100
AcDbScale
 70
     0
300
1/8" = 1'-0"
140
0.125
141
12.0
290
     0
  0
SCALE
  5
5F
102
{ACAD_REACTORS
330
47
102
}
330
47
100
AcDbScale
 70
     0
300
3/16" = 1'-0"
140
0.1875
141
12.0
290
     0
  0
SCALE
  5
60
102
{ACAD_REACTORS
330
47
102
}
330
47
100
AcDbScale
 70
     0
300
1/4" = 1'-0"
140
0.25
141
12.0
290
     0
  0
SCALE
  5
61
102
{ACAD_REACTORS
330
47
102
}
330
47
100
AcDbScale
 70
     0
300
3/8" = 1'-0"
140
0.375
141
12.0
290
     0
  0
SCALE
  5
62
102
{ACAD_REACTORS
330
47
102
}
330
47
100
AcDbScale
 70
     0
300
1/2" = 1'-0"
140
0.5
141
12.0
290
     0
  0
SCALE
  5
63
102
{ACAD_REACTORS
330
47
102
}
330
47
100
AcDbScale
 70
     0
300
3/4" = 1'-0"
140
0.75
141
12.0
290
     0
  0
SCALE
  5
64
102
{ACAD_REACTORS
330
47
102
}
330
47
100
AcDbScale
 70
     0
300
1" = 1'-0"
140
1.0
141
12.0
290
     0
  0
SCALE
  5
65
102
{ACAD_REACTORS
330
47
102
}
330
47
100
AcDbScale
 70
     0
300
1-1/2" = 1'-0"
140
1.5
141
12.0
290
     0
  0
SCALE
  5
66
102
{ACAD_REACTORS
330
47
102
}
330
47
100
AcDbScale
 70
     0
300
3" = 1'-0"
140
3.0
141
12.0
290
     0
  0
SCALE
  5
67
102
{ACAD_REACTORS
330
47
102
}
330
47
100
AcDbScale
 70
     0
300
6" = 1'-0"
140
6.0
141
12.0
290
     0
  0
SCALE
  5
68
102
{ACAD_REACTORS
330
47
102
}
330
47
100
AcDbScale
 70
     0
300
1'-0" = 1'-0"
140
12.0
141
12.0
290
     0
  0
ENDSEC
  0
EOF
